PrimaNota.ru - самый крупный в мире бесплатный архив песенных текстов, аккордов, табулатур и нот


Anna Ternheim - Still A Beautiful Day - аккорды и текст, видео

Регистрация Запомнить меня
Войти через:  Facebook Google Twitter Vk Yandex Mail.ru

Anna Ternheim - Still A Beautiful Day - аккорды и текст, видео

Печатать
Просмотров: 39
Уроки эстрадного вокала в Санкт-Петербурге
Still A Beautiful Day
Anna Ternheim
=============================================
|   Anna Ternheim - Still A Beautiful Day   |
|                                           |
|       Album: For The Young (2015)         | 
=============================================

Capo 2nd fret. Done by ear, so any corrections welcome.

Intro: C Am Em C Em

Em (throughout verse)
We could say one day at a time makes it useless to try
Maybe this mountain is ours, ahead heavenly climb
Pile of ashes, the wings of a moth, drawn to the flame
Sooner or later, you learn

C             Am
Still, it's a beautiful day
   Em               C
As long as I'm with you
  G             Am             D
I don't believe anything could tame
    Em
The sky

Em
We burn the fuse at both ends
Tell me how can I keep my baby safe
You could say one day at a time makes it all worthwhile

C             Am
Still, it's a beautiful day
   Em               C
As long as I'm with you
  G             Am
I don't believe anything could

C                     Am
People's backs turned away from the grave
   Em               C
As long as I'm with you
  G             Am
I don't believe anything could

Chords through solo: 
C Am Em C G Am
C Am Em C G Am D

Solo:
e|----------------------------------------------------------------------------------|
B|----------------------------------------------------------------------------------|
G|---------------------11-----------------------------------------------------------|
D|-------11-12-----14--------------11-------------12-----11-----------------11------|
A|-12-14------------------14----------14--------------------14-12--------12----14---|
E|----------------------------------------14--------------------------12------------|

e|----------------------------------------------------------------------------------|
B|-------------------------------12-------------------------------------------------|
G|---------------------11-------------14-----14-13-11-------11----------------------|
D|-------11-12-----14------------------------------------14----14-----------11------|
A|-12-14------------------14--------------------------------------12----14------14--|
E|----------------------------------------------------------------------------------|

e|---------------------------12---------------------------------|
B|---------------------12---------------------------------------|
G|---------------13---------------------------------------------|
D|-11--12--14---------------------------------------------------|
A|--------------------------------------------------------------|
E|---------------------------------0----------------------------|

(Em for outro)
Добавлено: 01.03.2016
Другие материалы по этой песне:
  • Аккорды и текст

Страница создана 01.03.2016
http://primanota.ru/anna-ternheim/still-a-beautiful-day-chords.htm
Привет, Гость.
Предлагаем пройти революционный курс по гитаре.
Подарок от PrimaNota.Ru, забирай!