PrimaNota.ru - самый крупный в мире бесплатный архив песенных текстов, аккордов, табулатур и нот


Anna Ternheim - Solitary Move - таба, видео

Регистрация Запомнить меня
Войти через:  Facebook Google Twitter Vk Yandex Mail.ru

Anna Ternheim - Solitary Move - таба, видео

Печатать
Просмотров: 99
Уроки эстрадного вокала в Санкт-Петербурге
Anna Ternheim - Solitary Move

As played live during 2012 acoustic tour

e.g.: http://www.youtube.com/watch?v=X10JAZk5eiE



Capo 2nd fret so 2nd fret becomes 0th fret

Pretty sure about this except the G after the Dm C progression...

anyhow enjoy playing




Main riff


e--------------------------------------------|
B--------------------------------------------|
G--5-----4----2---------0--------------------|
D----00----00---00--0h2----------------------|
A--------------------------------------------|
E--------------------------------------------|




Lovely night

I'll dance to tonight

Safe as long as I'm moving

No one touches me now

Hands without skin, oh so soothing


fill in after "soothing"
e--------------------------------------------|
B--------------------------------------------|
G-2----4----5----4---2--------0--------------|
D---0----0----00--00---00-0h2----------------|
A-0----2-------------------------------------|
E--------------------------------------------|


Lovely night

Free myself from heavy guilt on my shoulders

Stillness in the cold

Peace comes crawling up my bone


part from "..crawling"  = "pre chorus"
e--------------------------------------------|
B--------------------------------------------|
G-2---4----5----7---4---5--------------------|
D--0---0----0----0----0---0------------------|
A-0---5----5----5---5---5--------------------|
E--------------------------------------------|

then

  Bb      C         Bb        Am
e-----------------------------------------------|
B-3--3--3-5---5---5-3--3---3--1---1-1--1---1--1-|
G--3--3-----5---5----3---3------2--2-----2---2--|
D-----------------------------------------------|
A-1-------3---------1---------0--------0--------|
E-----------------------------------------------|

Dm             C            G
e---1-----1----------0------------------------|
B-3-----3---3--1---1---1----------------------|
G-----2----------0-------0--4---4---4---------|
D-0-------------------------------------------|
A--------------3--------------5---5--5--------|
E---------------------------3-----------------|

In a solitary move
I am moving away from you


Main Riff


Lovely night no need, but one
Let go what I hold in my hands
Let go what I hold in my heart
My head My chest
Ocean helps man to forget

pre chorus
Chorus

In a solitary move
I am moving away from you

e-----------------------------------------------|
B-3--3--3-5---5---5-3--3---3--1---1-1--1---1--1-|
G--3--3-----5---5----3---3------2--2-----2---2--|
D-----------------------------------------------|
A-1-------3---------1---------0--------0--------|
E-----------------------------------------------|

Dm             C
e---1-----1----------0-----------------------|
B-3-----3---3--1---1---1---------------------|
G-----2----------0-------0-------------------|
D-0------------------------------------------|
A--------------3-----------------------------|
E--------------------------------------------|
  Bb      C         D         C        G
e-----------------------------------------------|
B-3--3--3-5---5---5-7--7---7--5---5-5-----------|
G--3--3-----5---5----7---7------5--5---4---4----|
D-----------------------------------------------|
A-1-------3---------5---------3----------5---5--|
E--------------------------------------3--------|

  Bb   Am
e------------------------------------------------|
B-3--3--1---1------------------------------------|
G---3-----2---2-2---2---4---4---7---7----5---5---|
D-----------------0---0---0---0---0---0----0---0-|
A-1-----0-------0-------2-------5--------3-------|
E------------------------------------------------|

Main riff

End

e-----------------------------------------------|
B-----------------------------------------------|
G--5-----4----2---------0---2-------2--2------2-|
D----00----00---00--0h2-------0-0h2------0-0h2--|
A-----------------------------------------------|
E-----------------------------------------------|
Добавлено: 08.11.2013
Другие материалы по этой песне:
  • Аккорды и текст

Страница создана 08.11.2013
http://primanota.ru/anna-ternheim/solitary-move-chords.htm
Привет, Гость.
Предлагаем пройти революционный курс по гитаре.
Подарок от PrimaNota.Ru, забирай!