PrimaNota.ru - самый крупный в мире бесплатный архив песенных текстов, аккордов, табулатур и нот


Anna Ternheim - Off The Road - таба, видео

Регистрация Запомнить меня
Войти через:  Facebook Google Twitter Vk Yandex Mail.ru

Anna Ternheim - Off The Road - таба, видео

Печатать
Просмотров: 68
Уроки эстрадного вокала в Санкт-Петербурге
Simple ukulele tab for Off The Road / Anna Ternheim

In the original song, I think it's at least two guitars playing simultaneously. I tried 
to mimic the rhythm in
the song, it's a bit hard to explain, but I think you'll figure it out by listening to the song.
I've moved the tabs and lyrics so that the start of every other line fits with the tabs. 
In the first verse,
for example, "Off the..." and "soon with"... is coordinated with the tab.

It's the same pattern repeating throughout the whole song, except verse 4 - and after 
that it gets a bit hard
to keep track of the rhythm of the song, but I did my best ^^" I'm up for suggestions/corrections!

[intro]

A --3-------3---------------------------------------------------------|
E ------------------1-------1-----------------------------------------|
C ------------------------------------3-------2-------0-------0-------|
G --0-00-0--0-00-0--0-00-0--0-00-0----0-00-0--0-00-0--0-00-0--0-00-0--|


[verse 1]

A --3-------3---------------------------------------------------------------|
E ------------------1-------1-----------------------------------------------|
C ------------------------------------------3-------2-------0-------0-------|
G --0-00-0--0-00-0--0-00-0--0-00-0----------0-00-0--0-00-0--0-00-0--0-00-0--|
    Off the road, somewhere I don't know - soon with you, it's gonna blow

A --3-------3---------------------------------------------------------|
E ------------------1-------1-----------------------------------------|
C ------------------------------------3-------2-------0-------0-------|
G --0-00-0--0-00-0--0-00-0--0-00-0----0-00-0--0-00-0--0-00-0--0-00-0--|
   In your car, for hours and days,   weeks and months, windows rolled down

A --3-------3---------------------------------------------------------|
E ------------------1-------1-----------------------------------------|
C ------------------------------------3-------2-------0-------0-------|
G --0-00-0--0-00-0--0-00-0--0-00-0----0-00-0--0-00-0--0-00-0--0-00-0--|

A --3-------3---------------------------------------------------------|
E ------------------1-------1-----------------------------------------|
C ------------------------------------3-------2-------0-------0-------|
G --0-00-0--0-00-0--0-00-0--0-00-0----0-00-0--0-00-0--0-00-0--0-00-0--|


[verse 2]

A --3-------3-------------------------------------------------------------|
E ------------------1-------1---------------------------------------------|
C ----------------------------------------3-------2-------0-------0-------|
G --0-00-0--0-00-0--0-00-0--0-00-0--------0-00-0--0-00-0--0-00-0--0-00-0--|
    Pass small cities, and big ones too - I brought one promise, not one for you

A --3-------3---------------------------------------------------------|
E ------------------1-------1-----------------------------------------|
C ------------------------------------3-------2-------0-------0-------|
G --0-00-0--0-00-0--0-00-0--0-00-0----0-00-0--0-00-0--0-00-0--0-00-0--|
    We drive fast, sun sets low      Wonna reach the sun      before I

A --3-------3---------------------------------------------------------|
E ------------------1-------1-----------------------------------------|
C ------------------------------------3-------2-------0-------0-------|
G --0-00-0--0-00-0--0-00-0--0-00-0----0-00-0--0-00-0--0-00-0--0-00-0--|
    get old

A --3-------3---------------------------------------------------------|
E ------------------1-------1-----------------------------------------|
C ------------------------------------3-------2-------0-------0-------|
G --0-00-0--0-00-0--0-00-0--0-00-0----0-00-0--0-00-0--0-00-0--0-00-0--|


[verse 3]

A --3-------3---------------------------------------------------------------|
E ------------------1-------1-----------------------------------------------|
C ------------------------------------------3-------2-------0-------0-------|
G --0-00-0--0-00-0--0-00-0--0-00-0----------0-00-0--0-00-0--0-00-0--0-00-0--|
    Deserts and fields, and the pine trees  Music my father played me when

A --3-------3---------------------------------------------------------|
E ------------------1-------1-----------------------------------------|
C ------------------------------------3-------2-------0-------0-------|
G --0-00-0--0-00-0--0-00-0--0-00-0----0-00-0--0-00-0--0-00-0--0-00-0--|
    I was a child, just like now      I never once knew       This feeling could

A --3-------3-------------------------------------------------------|
E ------------------1-------1---------------------------------------|
C ----------------------------------3-------2-------0-------0-------|
G --0-00-0--0-00-0--0-00-0--0-00-0--0-00-0--0-00-0--0-00-0--0-00-0--|
    die

A --3-------3-------------------------------------------------------|
E ------------------1-------1---------------------------------------|
C ----------------------------------3-------2-------0-------0-------|
G --0-00-0--0-00-0--0-00-0--0-00-0--0-00-0--0-00-0--0-00-0--0-00-0--|


[verse 4]

A --3-------3-------3-------3-------3-------3-----3-------3---------|
E ------------------------------------------------------------------|
C ------------------------------------------------------------------|
G --0-00-0--0-00-0--0-00-0--0-00-0--0-00-0--0-00-0--0-00-0--0-00-0--|
    Those days came and went - Then you get taken by life by accident

A --3-------3-------3-------3-------3-------3-----3-------3---------|
E ------------------------------------------------------------------|
C ------------------------------------------------------------------|
G --0-00-0--0-00-0--0-00-0--0-00-0--0-00-0--0-00-0--0-00-0--0-00-0--|
   And you wake up somewhere in the shade - Overloaded by what you made yourself

A --3-------3-------3-------3-------3-------3-----3-------3---------|
E ------------------------------------------------------------------|
C ------------------------------------------------------------------|
G --0-00-0--0-00-0--0-00-0--0-00-0--0-00-0--0-00-0--0-00-0--0-00-0--|

A --3-------3-------3-------3-------3-------3-----3---------|
E ----------------------------------------------------------|
C ----------------------------------------------------------|
G --0-00-0--0-00-0--0-00-0--0-00-0--0-00-0--0-00-0--0-00-0--|
    Have to get the things, the ring, a man, a wing

A --3-------3--------------------------------------------------------|
E ------------------1-------1----------------------------------------|
C -----------------------------------3-------2-------0-------0-------|
G --0-00-0--0-00-0--0-00-0--0-00-0---0-00-0--0-00-0--0-00-0--0-00-0--|
    and smile when you don't win     And I say off the road, somewhere I don't know

[Verse 5?]

A --3-------3--------------------------------------------------------|
E ------------------1-------1----------------------------------------|
C -----------------------------------3-------2-------0-------0-------|
G --0-00-0--0-00-0--0-00-0--0-00-0---0-00-0--0-00-0--0-00-0--0-00-0--|
    Just as long as I feel it blow - deserts and fields and the pine trees

A --3-------3-------------------------------------------------------|
E ------------------1-------1---------------------------------------|
C ----------------------------------3-------2-------0-------0-------|
G --0-00-0--0-00-0--0-00-0--0-00-0--0-00-0--0-00-0--0-00-0--0-00-0--|
    Music my father played me       When I was a child just like now

A --3-------3-------------------------------------------------------|
E ------------------1-------1---------------------------------------|
C ----------------------------------3-------2-------0-------0-------|
G --0-00-0--0-00-0--0-00-0--0-00-0--0-00-0--0-00-0--0-00-0--0-00-0--|
    I never once thought            that feeling could die

A --3-------3-------------------------------------------------------|
E ------------------1-------1---------------------------------------|
C ----------------------------------3-------2-------0-------0-------|
G --0-00-0--0-00-0--0-00-0--0-00-0--0-00-0--0-00-0--0-00-0--0-00-0--|
                                          MMMmm     That feeling could

A --3-------3---------------------------------------------------------|
E ------------------1-------1-----------------------------------------|
C -----------------------------------3-------2-------0-------0--------|
G --0-00-0--0-00-0--0-00-0--0-00-0---0-00-0--0-00-0--0-00-0--0-00-0---|
    die            mmmmmmmm-mmm......
Добавлено: 07.04.2017
Другие материалы по этой песне:
  • Аккорды и текст

Страница создана 07.04.2017
http://primanota.ru/anna-ternheim/off-road-chords.htm
Привет, Гость.
Предлагаем пройти революционный курс по гитаре.
Подарок от PrimaNota.Ru, забирай!