PrimaNota.ru - самый крупный в мире бесплатный архив песенных текстов, аккордов, табулатур и нот


Anna Jarvinen - Uppat Framat Pa Finska - таба, видео

Регистрация Запомнить меня
Войти через:  Facebook Google Twitter Vk Yandex Mail.ru

Anna Jarvinen - Uppat Framat Pa Finska - таба, видео

Печатать
Просмотров: 121
Уроки эстрадного вокала в Санкт-Петербурге
-------------------------------------------------------------------------
UPPÅT FRAMÅT PÅ FINSKA – Anna Järvinen
-------------------------------------------------------------------------
Tabbed by: Kengus

Official website: www.annajarvinen.se

Standard tuning

INTRO
   C#+7#9                          Asus4#5add5                     C#+7#9
e|---------0---------------0---------------0---------------0-------------|
B|-------0---0-----------0---0-----------3---3-----------3---3-----------|
G|-----2-------2-------2-------2-------2-------2-------2-------2-------2-|
D|---3-----------3---3-----------3---3-----------3---3-----------3---3---|
A|-4---------------4---------------0---------------0---------------4-----|
E|-----------------------------------------------------------------------|
                             C
e|---0---------------0---------------0---------------0--------|
B|-0---0-----------0---0-----------1---1-----------1---1------|
G|-------2-------2-------2-------0-------0-------0-------0----|   x2
D|---------3---3-----------3---2-----------2---2-----------2--|
A|-----------4---------------3---------------3----------------|
E|------------------------------------------------------------|

VERSE I
   Em                              Am                              D/A
e|---------0---------------0---------------0---------------0-------------|
B|-------0---0-----------0---0-----------1---1-----------1---1-----------|
G|-----0-------0-------0-------0-------2-------2-------2-------2-------2-|
D|---2-----------2---2-----------2---2-----------2---2-----------2---0---|
A|---------------------------------0---------------0---------------0-----|
E|-0---------------0-----------------------------------------------------|
                             C
e|---2---------------2---------------0---------------0--------|
B|-3---3-----------3---3-----------1---1-----------1---1------|
G|-------2-------2-------2-------0-------0-------0-------0----|   x2
D|---------0---0-----------0---2-----------2---2-----------2--|
A|-----------0---------------3---------------3----------------|
E|------------------------------------------------------------|

VERSE II
   Em                              Am                              D/A
e|---------0---------------0---------------0---------------0-------------|
B|-------0---0-----------0---0-----------1---1-----------1---1-----------|
G|-----0-------0-------0-------0-------2-------2-------2-------2-------2-|
D|---2-----------2---2-----------2---2-----------2---2-----------2---0---|
A|---------------------------------0---------------0---------------0-----|
E|-0---------------0-----------------------------------------------------|
                             C
e|---2---------------2---------------0---------------0--------|
B|-3---3-----------3---3-----------1---1-----------1---1------|
G|-------2-------2-------2-------0-------0-------0-------0----|   x2
D|---------0---0-----------0---2-----------2---2-----------2--|
A|-----------0---------------3---------------3----------------|
E|------------------------------------------------------------|

OUTRO
   C#+7#9                          Asus4#5add5                     C#+7#9
e|---------0---------------0---------------0---------------0-------------|
B|-------0---0-----------0---0-----------3---3-----------3---3-----------|
G|-----2-------2-------2-------2-------2-------2-------2-------2-------2-|
D|---3-----------3---3-----------3---3-----------3---3-----------3---3---|
A|-4---------------4---------------0---------------0---------------4-----|
E|-----------------------------------------------------------------------|
                             C
e|---0---------------0---------------0---------------0--------|
B|-0---0-----------0---0-----------1---1-----------1---1------|
G|-------2-------2-------2-------0-------0-------0-------0----|
D|---------3---3-----------3---2-----------2---2-----------2--|
A|-----------4---------------3---------------3----------------|
E|------------------------------------------------------------|
   C#+7#9                          Asus4#5add5                     C#+7#9
e|---------0---------------0---------------0---------------0-------------|
B|-------0---0-----------0---0-----------3---3-----------3---3-----------|
G|-----2-------2-------2-------2-------2-------2-------2-------2-------2-|
D|---3-----------3---3-----------3---3-----------3---3-----------3---3---|
A|-4---------------4---------------0---------------0---------------4-----|
E|-----------------------------------------------------------------------|
                             C
e|---0---------------0---------------0---------------0--|
B|-0---0-----------0---0-----------1---1-----------1----|
G|-------2-------2-------2-------0-------0-------0------|
D|---------3---3-----------3---2-----------2---2--------|
A|-----------4---------------3---------------3----------|
E|------------------------------------------------------|

INTRO
C#+7#9   Asus4#5add5   C#+7#9   C
C#+7#9   Asus4#5add5   C#+7#9   C

VERSE I
Em                               Am
    Männyn latva tanssii, huomaathan
D/A                          C
 Vaikka maa on täynnä neuloja
Em                           Am
    Älä katso taakse tyttöni mun
D/A                           C
 Helposti vaan surut näkee näin

VERSE II
Em                          Am
    Kävellään me käsi kädessä
    D/A                        C
Mun askeleet ja sun vie huomiseen
Em                           Am
    Uinutaan sen suven suhinaan
D/A                        C
 Jonka mänty hiljaa viheltää

OUTRO
C#+7#9   Asus4#5add5   C#+7#9   C
C#+7#9   Asus4#5add5   C#+7#9   C

=========================================================================
Добавлено: 25.07.2012
Другие материалы по этой песне:
  • Аккорды и текст

Страница создана 25.07.2012
http://primanota.ru/anna-jarvinen/uppat-framat-pa-finska-chords.htm
Привет, Гость.
Предлагаем пройти революционный курс по гитаре.
Подарок от PrimaNota.Ru, забирай!