PrimaNota.ru - самый крупный в мире бесплатный архив песенных текстов, аккордов, табулатур и нот


Anna F - Too Far - аккорды и текст, видео

Регистрация Запомнить меня
Войти через:  Facebook Google Twitter Vk Yandex Mail.ru

Anna F - Too Far - аккорды и текст, видео

Печатать
Просмотров: 79
Too Far
Anna F
Too Far - Anna F.

Capo 2nd fret


Intro and Chorus:

   Em                              C               G       G/F#
||---3---3---3---3---3---3---3---3---3---3---3---3---3---3---3---3--||
||---0---0---0---0---0---0---0---0---0---0---0---0---0---0---0---0--||
||---4---4---4---4---4---4---4---4---4---4---4---4---4---4---4---4--||
||-2---2---2---2---2---2---2---2------------------------------------||
||---------------------------------3---3---3---3--------------------||
||-------------------------------------------------3---3---2---2----||
repeat

Verse:

   Em                              C                D*
||---3---3---3---3---3---3---3---3---3---3---3---3------------------||
||---0---0---0---0---0---0---0---0---0---0---0---0---3---3---3---3--||
||---4---4---4---4---4---4---4---4---4---4---4---4---0---0---0---0--||
||-2---2---2---2---2---2---2---2------------------------------------||
||---------------------------------3---3---3---3---5---5---5---5----||
||------------------------------------------------------------------||
repeat

Verse:
Em
You and I under different stars
C                   D* (x54040x)                        
you dream a lot and I keep chasing the past
Em
to remind you of who we are,
            C          D*
you've been gone for a while
Em
in a distance another time
C                   D*
  when you lay with me in the stillness of night
Em
I'm there where we used to be 
        C            D*
calling out, calling out


Chorus:
Em                                               C
Lay down, lay down on my shoulder take me to the water
                 G          G/F#          Em
lets not talk it over we're islands in an ocean silences are broken
               C                            G       G/F#
lay down on my shoulder as if we were still closer
          Em
but we're too far
         C         G   G/F#
drifting too far
          Em
but we're too far
         C         G   G/F#
drifting too far


Em
Feel the rush of my secret heart,
C                         D*
forgive the light was the call of the dark
Em 
can you hear what I never said,
C           C
that I need what you are
Em 
Take a minute and look around, take a look we're all alone
C                         D*
you can never cut me out, don't look away now
Em 
Take a minute and look around,
                  C             D*
been away for too long, for too long

Chorus

Em
In a night under strange stars,
                   C                  D*
been awake for too long
Em 
I'm wondering where you are,
              C             D*
how did we go wrong
Em
you and I see the same stars,
                   C             D*
been awake for too long, for too long


Chorus
Добавлено: 02.01.2016
Другие материалы по этой песне:
  • Аккорды и текст

Страница создана 02.01.2016
http://primanota.ru/anna-f/too-far-chords.htm
Привет, Гость.
Предлагаем пройти революционный курс по гитаре.
Подарок от PrimaNota.Ru, забирай!