PrimaNota.ru - самый крупный в мире бесплатный архив песенных текстов, аккордов, табулатур и нот


Anna Blue - So Alone - таба, видео

Регистрация Запомнить меня
Войти через:  Facebook Google Twitter Vk Yandex Mail.ru

Anna Blue - So Alone - таба, видео

Печатать
Просмотров: 173
Hi, I'm Gabriel I really like this song by Anna Blue but I never saw any guitar 
tabs so here is mine. 

Its Half Step Down.

x = palm mute   \\ pick slide

So Alone - Anna Blue

This part with Lyrics and 2nd part just music.
___________________________________________

 My face against the window pane
 A tear for every drop of rain

[Part1]                                                          
Eb]-------------------------------------------------------------]
Bb]-------------------------------------------------------------]
Gb]--------------44----55----22----------44----55----22---------]
Db]--------22----44----55----22----22----44----55----22----22---] X2 
Ab]\\\\----22----22----33----20----22----22----33----00----22---]    
Eb]\\\\----00----------------------00----------------------00---]    
  (Pickslide only once)

[Start Playing Part1]
 I am so lonely and so sad
 You're the reason that I'm feeling bad
 I am so lonely and so sad
 Living in a dream I've never had.....

[Part2]
Eb]------------------------------------------]
Bb]------------------------------------------]
Gb]------------444444----555555----222222----]
Db]--222222----444444----555555----222222----]   x2
Ab]--222222----222222----333333----000000----]
Eb]--000000----------------------------------]
     xxxxxx    xxxxxx    xxxxxx    xxxxxx   

[Start playing Part2]
 My face against the window pane
 A tear for every drop of rain
 I'm living like already I have died
 Have died.....
 
[Part3]
Eb]--------------------------------------------------------]
Bb]--------------------------------------------------------]
Gb]----------------444444-4------555555-5------222222-2----]
Db]--222222-2------444444-4------555555-5------222222-2----]   x2
Ab]--222222-2------222222-2------333333-3------000000-0----]
Eb]--000000-0----------------------------------------------]
     xxxxxx        xxxxxx        xxxxxx        xxxxxx   

[Start playing Part3]
 Emptiness a present past
 A silent scream to shatter glass
 I have to go; it's time for me to fly


[Part1]
Eb]--------------------------------------------------------]
Bb]--------------------------------------------------------]
Gb]--------44----55----22----------44----55----22----------]
Db]--22----44----55----22----22----44----55----22-----22---]
Ab]--22----22----33----00----22----22----33----00-----22---]
Eb]--00----------------------00-----------------------00---]
 
[Start Playing Part1]
 I am so lonely and so sad
 You're the reason that I'm feeling bad
 I am so lonely and so sad
 Living in a dream I've never had.....


(Wake me with your kiss)


 Who will care if I'm not here?
 If suddenly I disappeared?
 No one's gonna notice it at all
 
(Guitar Pause)


[Part2]
Eb]------------------------------------------]
Bb]------------------------------------------]
Gb]------------444444----555555----222222----]
Db]--222222----444444----555555----222222----]  
Ab]--222222----222222----333333----000000----]
Eb]--000000----------------------------------]
     xxxxxx    xxxxxx    xxxxxx    xxxxxx   

[Part2 Alternate Ending]
Eb]------------------------------------------------------]
Bb]--------------------------------12-12-12--14-14-14----]
Gb]------------444444----555555----12-12-12--14-14-14----]
Db]--222222----444444----555555----10-10-10--12-12-12----]  
Ab]--222222----222222----333333--------------------------]
Eb]--000000----------------------------------------------]
     xxxxxx    xxxxxx    xxxxxx       


[Start Playing Part2]
 Dying flowers in my hand
 I'm vanishing from where I stand
 It isn't yet too late to get the truth


[Part1]                                                          
Eb]-------------------------------------------------------------]
Bb]-------------------------------------------------------------]
Gb]--------------44----55----22----------44----55----22---------]
Db]--------22----44----55----22----22----44----55----22----22---] X2 
Ab]\\\\----22----22----33----20----22----22----33----00----22---]    
Eb]\\\\----00----------------------00----------------------00---]    
  (Pickslide only once)

[Start Playing Part1]
 I am so lonely and so sad
 You're the reason that I'm feeling bad
 I am so lonely and so sad
 Living in a dream I've never had.....


[Part1]                                                          
Eb]----------------------------------------------------------]
Bb]----------------------------------------------------------]
Gb]----------44----55----22----------44----55----22----------] x2
Db]----22----44----55----22----22----44----55----22----22----] pause 
Ab]----22----22----33----20----22----22----33----00----22----] x2   
Eb]----00----------------------00----------------------00----]    
  

[Start Playing Part1]
 I am so lonely and so sad
 You're the reason that I'm feeling bad
 I am so lonely and so sad
 Living in a dream I've never had.....

(Wake me with your kiss)


*************************************************************

*************************************************************


With just music, no lyrics.


[Part1]                                                    
Eb]-------------------------------------------------------------]
Bb]-------------------------------------------------------------]
Gb]--------------44----55----22----------44----55----22---------]
Db]--------22----44----55----22----22----44----55----22----22---] X2 
Ab]\\\\----22----22----33----20----22----22----33----00----22---]    
Eb]\\\\----00----------------------00----------------------00---]    
  (Pickslide only once)
  "I am so lonely and so sad"


[Part2]
Eb]------------------------------------------]
Bb]------------------------------------------]
Gb]------------444444----555555----222222----]
Db]--222222----444444----555555----222222----]   x2
Ab]--222222----222222----333333----000000----]
Eb]--000000----------------------------------]
     xxxxxx    xxxxxx    xxxxxx    xxxxxx   
  "My face against the window pane"


[Part3]
Eb]--------------------------------------------------------]
Bb]--------------------------------------------------------]
Gb]----------------444444-4------555555-5------222222-2----]
Db]--222222-2------444444-4------555555-5------222222-2----]   x2
Ab]--222222-2------222222-2------333333-3------000000-0----]
Eb]--000000-0----------------------------------------------]
     xxxxxx        xxxxxx        xxxxxx        xxxxxx   
  "Emptiness a present past"


[Part1]
Eb]--------------------------------------------------------]
Bb]--------------------------------------------------------]
Gb]--------44----55----22----------44----55----22----------]
Db]--22----44----55----22----22----44----55----22-----22---]
Ab]--22----22----33----00----22----22----33----00-----22---]
Eb]--00----------------------00-----------------------00---]
  "I am so lonely and so sad"



(Pause)



[Part2]
Eb]------------------------------------------]
Bb]------------------------------------------]
Gb]------------444444----555555----222222----]
Db]--222222----444444----555555----222222----]  
Ab]--222222----222222----333333----000000----]
Eb]--000000----------------------------------]
     xxxxxx    xxxxxx    xxxxxx    xxxxxx   
  "Dying flowers in my hand"


[Part2 Alternate Ending]
Eb]------------------------------------------------------]
Bb]--------------------------------12-12-12--14-14-14----]
Gb]------------444444----555555----12-12-12--14-14-14----]
Db]--222222----444444----555555----10-10-10--12-12-12----]  
Ab]--222222----222222----333333--------------------------]
Eb]--000000----------------------------------------------]
     xxxxxx    xxxxxx    xxxxxx       
 


[Part1]                                                          
Eb]-------------------------------------------------------------]
Bb]-------------------------------------------------------------]
Gb]--------------44----55----22----------44----55----22---------]
Db]--------22----44----55----22----22----44----55----22----22---] X2 
Ab]\\\\----22----22----33----20----22----22----33----00----22---]    
Eb]\\\\----00----------------------00----------------------00---]    
  (Pickslide only once)
  "I am so lonely and so sad"



[Part1]                                                          
Eb]----------------------------------------------------------]
Bb]----------------------------------------------------------]
Gb]----------44----55----22----------44----55----22----------] x2
Db]----22----44----55----22----22----44----55----22----22----] pause
Ab]----22----22----33----20----22----22----33----00----22----] x2   
Eb]----00----------------------00----------------------00----]    
    "I am so lonely and so sad"




Hope you enjoyed it, an awesome song to play.

Unsigned band
http://www.youtube.com/watch?v=9tE31Wd7DF4

https://www.facebook.com/AnnaBlueMusik
Добавлено: 11.09.2013
Другие материалы по этой песне:
  • Аккорды и текст

Страница создана 11.09.2013
http://primanota.ru/anna-blue/so-alone-chords.htm
Привет, Гость.
Предлагаем пройти революционный курс по гитаре.
Подарок от PrimaNota.Ru, забирай!