PrimaNota.ru - самый крупный в мире бесплатный архив песенных текстов, аккордов, табулатур и нот


Anna Bergendahl - The Army - аккорды и текст, видео

Регистрация Запомнить меня
Войти через:  Facebook Google Twitter Vk Yandex Mail.ru

Anna Bergendahl - The Army - аккорды и текст, видео

Печатать
Просмотров: 121
The Army
Anna Bergendahl
Song: Army
Artist: Anna Bergendahl
Album: Yours Sincerely
Email: david.ahlstroem@gmail.com
Tabbed by: Go0fy

Tuning: standard
Chords used:
D:  000230
A:   002220
Esus4:002200
E:   022100
D:   000232
Bm:  224432
F#m: 244222


Intro: D  A- (see tab1)

Tab 1
      D   A  -              D   A  -                 
e|----0----0--0--------------0----0--0-----------------------------------|
B|----3----2--0h2-3-2-0------3----2--0h2-3-2-0---------------------------|
G|----2----2--2---------2----2----2--2---------2-------------------------|
D|----0----2--2--------------0----2--2-----------------------------------|
A|----0----0--0--------------0----0--0-----------------------------------|
E|----0----0--0--------------0----0--0-----------------------------------|

Tab2
      D   A  -              D   A  -                   
e|----0----0--0-------0------0----0--0-------0---------------------------|
B|----3----2--0h2p-0---------3----2--0h2p-0------------------------------|
G|----2----2--2------2-------2----2--2------2----------------------------|
D|----0----2--2--------------0----2--2-----------------------------------|
A|----0----0--0--------------0----0--0-----------------------------------|
E|----0----0--0--------------0----0--0-----------------------------------|


--------------------------------------------------------------
Verse1 
--------------------------------------------------------------
            D               A-(tab1)      D           A-
It was the calm before the storm and she was taking up the torch
                E                              Bm           D  D(fingerpick)
She saw them riding for a fall, blind to the spirit of the lord
                D                 A-(tab2)          D               A-
They sold their bodies and their souls but she held on to keep her own
                 E
Cause there were something in the air
                    Bm           D     D(fingerpick)   
That told her just fall in the stairs

--------------------------------------------------------------
Pre-chorus
--------------------------------------------------------------
Bm                                      E
Don't lose your faith, the light will shine on your way
             Bm                  
And listen - don't change your heart
               E
The day will break and you, stand tall

--------------------------------------------------------------
Chorus
--------------------------------------------------------------
                      D  D              A Esus4 A
And so she builds an army with all her friends
                  E                  F#m 
All prepared to fight til the bitter end
                     D  D              A Esus4 A                   
And they started marching, irrespectable
                E                   F#m  A  D     F#m  A  D
It's the only dying in the name of love,          love
-------------------------------------------------------------
Verse2
-------------------------------------------------------------
            D                 A-(tab2)           D           A-
And they were heading for the hills. She filled her caution to the wind 
                E                                  Bm             D
and travelled off the beaten track. The one with shuttles of the past


--------------------------------------------------------------
Pre-chorus
--------------------------------------------------------------
Bm                                      E
Don't lose your faith, the light will shine on your way
             Bm                  
And listen - don't change your heart
               E
The day will break and you, stand tall
--------------------------------------------------------------
Chorus
--------------------------------------------------------------
                      D  D              A Esus4 A
And so she builds an army with all her friends
                  E                  F#m 
All prepared to fight til the bitter end
                     D  D              A Esus4 A                   
And they started marching, irrespectable
                E                   F#m  A  D     F#m  A  D
It's the only dying in the name of love,          love
--------------------------------------------------------------
Ending
--------------------------------------------------------------
            D               A-                D           A-
It was the calm before the storm and she was taking up the torch
                E                             Bm            A  
She saw them riding for a fall, blind to the spirit of the lord


Thats it!
Comment and rate pls. :)
Добавлено: 14.05.2012
Вам также может быть интересно:
Другие материалы по этой песне:
  • Аккорды и текст

Страница создана 14.05.2012
http://primanota.ru/anna-bergendahl/the-army-chords.htm
Привет, Гость.
Предлагаем пройти революционный курс по гитаре.
Подарок от PrimaNota.Ru, забирай!