PrimaNota.ru - самый крупный в мире бесплатный архив песенных текстов, аккордов, табулатур и нот


Ankit Tiwari - Tu Hai Ki Nahi - Roy - аккорды и текст, видео

Регистрация Запомнить меня
Войти через:  Facebook Google Twitter Vk Yandex Mail.ru

Ankit Tiwari - Tu Hai Ki Nahi - Roy - аккорды и текст, видео

Печатать
Просмотров: 312
Уроки эстрадного вокала в Санкт-Петербурге
Tu Hai Ki Nahi - Roy
Ankit Tiwari
Capo 1st Fret:
Chords with respect to capo

Intro (whistling): Picking each string
After picking the first string of each chord, quickly pick the rest of the remaining strings described below.

        Am                F                G                  F
E------------------------1---------------- 3------------------1-------------------|
A----0----------------------------------------------------------------------------|
D-------2-------------------3-----------------0------------------3----------------|
G----------2-----2------------2------------------0-----0-----------2--------------|
B--------------1-------------------1-----------------0-----------------1----------|
E --------------------------------------------------------------------------------|

Verse 1:

Am                  F
Mujhse hi aaj mujhko mila de

G                    F         Am
Dekhoon aadaton main tu hai ki nahi

Am                      F
Har saans se pooch ke bataa de

G                 F         Am
Inke faaslon mein tu hai ki nahi

G            F               G
Main aas-paas tere aur mere paas

Am        F     G
Tu Hai Ki Nahiiiiiiiiiii

Am        F     G
Tu Hai Ki Nahiiiiiiiiiiii

Am          F       G
Tu Hai,,, Ki Nahiiiiii...

Whistling:

        Am                F                G                    F
E------------------------1---------------- 3------------------1-------------------|
A----0----------------------------------------------------------------------------|
D-------2-------------------3-----------------0------------------3----------------|
G----------2-----2------------2------------------0-----0-----------2--------------|
B--------------1-------------------1-----------------0-----------------1----------|
E --------------------------------------------------------------------------------|

Verse 2:

Am          G            F            G
Daudte hain khwaab jinpe rasta woh tu lage

F           G            F             Am
Neend se jo aankh ka hai waasta woh tu lage

Am          G            F            G
Tu badalta waqt koi khushnuma sa pal mera

F            G           F              Am
Tu woh lamha jo na thehre aane waala kal mera

G             F             G
Main aas-paas tere aur mere paassss....

Am        F    G
Tu Hai Ki Nahiiiiiiiiiiii
Tu Hai Ki Nahiiiiiiiiiiii

Am           F         G
Tu Hai,,,, Ki Nahiiiiiiiiii...

Rest Same:
In labon pe jo hansi hai inki tu hi hai wajah
Bin tere me kuch nahi hun mera hona bewajah
Dhoop teri na pade to dhundhla sa main lagun
Aake saanse de mujhe tu taaki zinda me rahun
Main aas-paas tere aur mere paas...

Tu hai ki nahiiiiiiii
Tu hai ki nahiiiiiiii
Tu hai ki nahiiiiiiiii
Tu hai ki nahiiiiiiiii... (x2)

Thank U for reviewing and kindly rate it...!!!!
Добавлено: 20.07.2015
Другие материалы по этой песне:
  • Аккорды и текст

Страница создана 20.07.2015
http://primanota.ru/ankit-tiwari/tu-hai-ki-nahi-roy-chords.htm
Привет, Гость.
Предлагаем пройти революционный курс по гитаре.
Подарок от PrimaNota.Ru, забирай!