PrimaNota.ru - самый крупный в мире бесплатный архив песенных текстов, аккордов, табулатур и нот


Ankit Tiwari - Katra Katra - Alone - таба, видео

Регистрация Запомнить меня
Войти через:  Facebook Google Twitter Vk Yandex Mail.ru

Ankit Tiwari - Katra Katra - Alone - таба, видео

Печатать
Просмотров: 410
Song Name: Katra Katra
Singers:  Ankit Tiwari & Prakriti Kakar
Music Director: Ankit Tiwari
Lyricist:  Ankit Tiwari
Movie/Album:  Alone

Dm [0,0,0,2,3,1]
Bb [0,1,3,3,3,1]
C  [0,3,2,0,1,0]
Am [0,0,2,2,1,0]
Gm [3,5,5,3,3,3]


INTRO

e|--------1--0-1-----------0-------1--0-1--------------------------|
B|------3--------3-------1---------------3--------3----------------|
G|----2----------------2---------3---------------3-----------------|
D|--0---------------------------3---------------0------------------|
A|-------------------3---------1-----------------------------------|
E|--------------------------------------------3--------------------|



e|--------1--0-1-3/5--------------------1---------------3----------|
B|------3-----------------5-------3--1------------3----------------|
G|----2------------------5---------------3-------3-----------------|
D|--0-------------------5-------3--3--3---------0------------------|
A|---------------------3-------1-----------------------------------|
E|--------------------------------------------3--------------------|

(Continue playing the intro till the pre-chorus ends)
Iss tarah se khudse aa mujhko jod tu
Thoda bhi mujhme na mujhko chhod tu

[PRE-CHORUS]
Na yaad teri tujhko
Na yaad mujhe hoon main
Aa mujhko pehan le tu
Aa tujhko odh loon main

[CHORUS]
Dm               Bb
Katra katra main girun
Dm              C
Jism pe tere theharun
Dm                   Bb
Katra katra mein girun
      Dm            Bb
Tujh mein hi kahin reh lun

[INSTRUMENTAL] Dm C x2

[VERSE]
Dm  C      Gm     Am
Dariya tu khaali kar de
Dm  C      Gm     Am
Mujhme saara tu bhar de
Dm  C      Gm     Am
Tujhko aa main pee jaaun, 
Dm  C      Gm     Am
pyaas bujha do..

Dm  C      Gm     Am
Laana kuch baadal laana
Dm  C      Gm     Am
Unko mujh par barsaana
Dm  C      Gm     Am
Boondein teri ho jinme, 
Dm  C      Gm     Am
unse bhigaa do...


[PRE-CHORUS]
Dm              Am
Na yaad teri tujhko
Bb            Gm
Na yaad mujhe hoon main
Dm              Am
Aa mujhko pehan le tu
Bb             Gm
Aa tujhko odh loon main

[CHORUS] 
Katra katra........



(Here comes the solo part. It's not much but it is pretty descent)
Also,
(this is as close as i could get to it) ;) :)
e|-------8----------8h10-8-------------------10\-----------------|
B|----6--------5-6--------10---10-11-10-11-10-----6-----5h6-6h8--|
G|---7-7---------------------------------------------5h7---------|
D|--7------------------------------------------------------------|
A|-----------5---------------------------------------------------|
E|----------5----------------------------------------------------|

e|-----------------10-8-6-8-6-5p6-5-------7-7--------------------| Mine is not complete yet.
B|-8h10-10-----6-8--------------8--8-7-5p6-5-5-5p7---------------|
G|----------7-9--------------------------------------------------| The end part of the solo gets pretty
D|---------------------------------------------------------------| rad, like the habibi style (if you
A|---------------------------------------------------------------| know what i mean) try it on A
E|---------------------------------------------------------------| minor scale i guess.


Khud se khaali ho jaaun
Aaja tujhse bhar jaaun
Tinka tinka jal jaaun
Aise jalaa do.. ho..

Tarun main tan pe tere
Thehrun angon pe tere
Gehari jo khawahish teri
Unme duba do..

Na yaad teri tujhko
Na yaad mujhe hoon main
Aa mujhko pehan le tu
tujhko odh loon main

katra katra main girun
Jism pe tere theharun
Katra katra main girun
Tujh mein hi kahin reh lun (x2)

End
e|---1-0--1-0--1-0--1-0--1-0--1-0--1-0--1-0--------------------|
B|-------------------------------------------------------------|
G|---------------------3----3----3----3------------------------|
D|--0---0----0----0--------------------------------------------|
A|-------------------------------------------------------------|
E|-------------------------------------------------------------|
Добавлено: 20.07.2015
Другие материалы по этой песне:
  • Аккорды и текст

Страница создана 20.07.2015
http://primanota.ru/ankit-tiwari/katra-katra-alone-chords.htm
Привет, Гость.
Предлагаем пройти революционный курс по гитаре.
Подарок от PrimaNota.Ru, забирай!