PrimaNota.ru - самый крупный в мире бесплатный архив песенных текстов, аккордов, табулатур и нот


Ankhara - No Mires Atrás - таба, видео

Регистрация Запомнить меня
Войти через:  Facebook Google Twitter Vk Yandex Mail.ru

Ankhara - No Mires Atrás - таба, видео

Печатать
Просмотров: 35
Esta cancion va a dedicada a una persona muy importante para mim Paola-
(nuestra amista esta del nabo por el momento)
pero aun asi sigue siendo mi best

esta cancion esta casi entera, porque 
falta la melodía del estribillo, 
y como no, el solo.

            A5
No mires atrás

                F5                  G5           C5        G5     A5 
Siguiendo tu estrella podrás encontrar universos llenos de felicidad

           F5               G5            C5        G5     A5
No mires atrás podrás encontrar universos llenos de felicidad

    G5      F5  G5        A5      
Y amor para ti, solo para ti

 ß---------------------------------- 2 VECES ---------------------------------------à
|-------------------------------------------------------------------------------------|
|-------------------------------------------------------------------------------------|
|-------------------------------------------------------------------------------------|
|-----5-----7-------------------------------------------------------------------------|
|-7-8---8-7---8-7-5-7-8---3---------------------------5---------------------------7---|
|-------------------------1-1-1-1-1-1-1-1-1-1-1-1-1-1-3-3-3-3-3-3-3-3-3-3-3-3-3-3-5---|
               Palm Mute ( ........................... ............................)       


|-----------------------------5-8~----------------------------------------------------|
|------------------------5-8----------------------------------------------------------|
|-------------------5-7---------------------------------------------------------------|
|--------------5-7--------------------------------------------------------------------|
|---------5-7-------------------------------------------------------------------------|
|-----5-8-----------------------------------------------------------------------------|


E5                F5  D5          E5                               F5  D5   
Puedes oírme otra vez eres libre, se que es así debes correr para otro lado

E5                       F5  D5        E5                   F5  D5
no te quisiera ver nunca mas arrastrándote pisoteado por la vida

<--------------------- 2 veces>
A5       G5    F5      A5             G5     E5 G5 A5
marcando tu final
                   |-----------------|
                   |----6-5-3-5-6~---|
                   |-----------------|
                   |-----------------|
                   |-----------------|
                   |-----------------|


E5                  F5 D5        E5                               F5 D5   
nuevo amanecer marcará esa llama de esperanza que todos encienden ya por ti

(en esta parte, los acordes se tocan con left muting siguiendo el ritmo de la bateria)
E5                   F5  D5          E5                    F5   D5   
una nueva canción oirás desde el cielo no seas naufrago en este mar


<--------------------- 2 veces>
A5       G5    F5      A5             G5     E5 G5 A5
marcando tu final
                   |-----------------|
                   |----6-5-3-5-6~---|
                   |-----------------|
                   |-----------------|
                   |-----------------|
                   |-----------------|

            A5
No mires atrás

                F5                  G5           C5        G5     A5 
Siguiendo tu estrella Podrás encontrar Universos llenos de felicidad

           F5               G5            C5        G5     A5
No mires atrás Podrás encontrar Universos llenos de felicidad

    G5      F5  G5        A5      
Y amor para ti, solo para ti


(En esta parte del estribillo, tocad los acordes con palm mute, 
 y sonará mas cañera  )
                F5                  G5           C5        G5     A5
Siguiendo tu estrella Podrás encontrar Universos llenos de felicidad

            F5               G5           C5        G5     A5
No mires atrás Podrás encontrar Universos llenos de felicidad

    G5      F5  G5        A5
Y amor para ti, solo para ti

---------solo----------
no tengo en estos momentos la ritmica porque se supone que yo 'toco el solo'
pero ya preguntaré al otro guitarra, de todas formas, creo que son los acordes
del estribillo
---------solo----------
A5
No mires atrás

                F5                  G5           C5        G5     A5 
Siguiendo tu estrella Podrás encontrar Universos llenos de felicidad

           F5               G5            C5        G5     A5
No mires atrás Podrás encontrar Universos llenos de felicidad

    G5      F5  G5        A5      
Y amor para ti, solo para ti


(En esta parte del estribillo, tocad los acordes con palm mute, y sonará mas cañera  )
                F5                  G5           C5        G5     A5
Siguiendo tu estrella Podrás encontrar Universos llenos de felicidad

            F5               G5           C5        G5     A5
No mires atrás Podrás encontrar Universos llenos de felicidad

    G5      F5  G5        A5
Y amor para ti, solo para ti


y eso es todo, si alguien tiene la melodia del estribillo o el solo, o el mismo 
Cecilio es tan amable de pasarmelo...
Добавлено: 25.05.2016
Другие материалы по этой песне:
  • Аккорды и текст

Страница создана 25.05.2016
http://primanota.ru/ankhara/no-mires-atras-chords.htm
Привет, Гость.
Предлагаем пройти революционный курс по гитаре.
Подарок от PrimaNota.Ru, забирай!