PrimaNota.ru - самый крупный в мире бесплатный архив песенных текстов, аккордов, табулатур и нот


Animosity - Holy Shackles - таба, видео

Регистрация Запомнить меня
Войти через:  Facebook Google Twitter Vk Yandex Mail.ru

Animosity - Holy Shackles - таба, видео

Печатать
Просмотров: 151
Уроки эстрадного вокала в Санкт-Петербурге
Gtr I (B F# B E A# C) - 'Untitled'

    Q=182
   4/4
     Gtr I
     E E S.  S. S. S. S. S.   E E S. S. S. E E   E E Q Q E E Q Q   S S S S Q
||--------------------------|------------------|-----------------|------------|
||o-------------------------|------------------|-----------------|------------|
||--------------------------|------------------|-----------------|------------|
||--------------------------|-----0--1--0------|-----------------|------------|
||o------8--10--8--6--8--6--|--------------3-1-|-----1-4-----3-6-|---------1--|
||---0-0--------------------|-0-0--------------|-0-0-1-4-0-0-3-6-|-0-0-0-0-1--|


  E E S.  S. S. S. S. S.   E E S. S. S. E E
|------------------------|------------------|
|------------------------|------------------|
|------------------------|------------------|
|------------------------|-----0--1--0------|
|-----8--10--8--6--8--6--|--------------3-1-|
|-0-0--------------------|-0-0--------------|


  E E Q Q E E Q Q   S. S. S. E E
|-----------------|---------------||----|
|-----------------|--------------o||----|
|-----------------|---------------||----|
|-----------------|---------------||----|
|-----1-4-----1-3-|-0--1--0------o||----|
|-0-0-1-4-0-0-1-3-|----------3-1--||----|


    Q E E Q Q   E E Q E E Q   Q E E Q Q   E E E E E E E E
||------------|-------------|-----------|------------------|
||o-----------|-------------|-----------|------------------|
||------------|-------------|-----------|------------------|
||------------|-------------|-----------|-3-3-0-0----------|
||o-6-----2-3-|-----2-----3-|-6-----2-3-|---------0-0------|
||--6-0-0-2-3-|-0-0-2-0-0-3-|-6-0-0-2-3-|-------------3-3--|


  Q E E Q Q   E E Q E E Q   Q E E Q Q   E E E E E E E E
|-----------|-------------|-----------|------------------||--|
|-----------|-------------|-----------|-----------------o||--|
|-----------|-------------|-----------|------------------||--|
|-----------|-------------|-----------|------------------||--|
|-6-----2-3-|-----2-----3-|-6-----2-3-|-------3-------3-o||--|
|-6-0-0-2-3-|-0-0-2-0-0-3-|-6-0-0-2-3-|-0-0-0-3-0-0-0-3--||--|


  E E E E E E E E   E E E E E E E E   Q Q E E E E E E E E E E E Q
|-----------------|-----------------|--------------------------------|
|-----------------|-----------------|--------------------------------|
|-----------------|-----------------|--------------------------------|
|-----------------|-----------------|--------------------------------|
|-------3-------3-|-------3-------3-|-0-3-6-6-----3-9-9-9-------1----|
|-0-0-0-3-0-0-0-3-|-0-0-0-3-0-0-0-3-|-0-3-6-6-0-0-3-9-9-9-0-0-0-1----|


    E E E E E E E E   E E E E E E E E
||------------------|-----------------|
||o-----------------|-----------------|
||------------------|-----------------|
||------------------|-7-6-------------|
||o-2-1-2-1-5-4-5-4-|-5-4-6-5-6-5-4-1-|
||--2-1-2-1-5-4-5-4-|-----6-5-6-5-4-1-|


                    1.                  2.
  E E E E E E E E   E E E E E E E E     Q Q Q Q Q Q
|-----------------|------------------||----------------|
|-----------------|-----------------o||----------------|
|-----------------|------------------||----------------|
|-----------------|-7-6-----6-5------||----------------|
|-2-1-2-1-5-4-5-4-|-5-4-6-5-4-3-4-1-o||----------------|
|-2-1-2-1-5-4-5-4-|-----6-5-----4-1--||-0-1-2-1-2-3----|


    Q=178                         1.
     Q  E  E  Q Q  E E  Q E E Q   Q  E  E  Q Q  E E  Q E E Q
||------------------------------|-----------------------------||
||o-----------------------------|----------------------------o||
||------------------------------|-----------------------------||
||------------------------------|-----------------------------||
||o--0-13-11-13-0-10-7-10-7-5-7-|-0-13-11-13-0-10-7-10-5-3-5-o||
||---0-13-11-13-0-10-7-10-7-5-7-|-0-13-11-13-0-10-7-10-5-3-5--||


  2.
  S S S S E S S S S E S S S S E S S S S S S  Q Q
|---------------------------------------------------|
|---------------------------------------------------|
|---------------------------------------------------|
|--------------------------------------------1-4----|
|---------0---------6---------9--------------1-4----|
|-0-0-0-0-0-0-0-0-0---0-0-0-0---0-0-0-0-0-0--1-4----|



Duration Legend
---------------
W - whole; H - half; Q - quarter; E - 8th; S - 16th; T - 32nd; X - 64th; a - acciaccatura
+ - note tied to previous; . - note dotted; .. - note double dotted
Uncapitalized letters represent notes that are staccato (1/2 duration)
Irregular groupings are notated above the duration line
Duration letters will always appear directly above the note/fret number it represents the
duration for.  Duration letters with no fret number below them represent rests.  Multi-
bar rests are notated in the form Wxn, where n is the number of bars to rest for.  Low
melody durations appear below the staff

Tablature Legend
----------------
 h   - hammer-on
 p   - pull-off
 b   - bend
 pb  - pre-bend
 r   - bend release (if no number after the r, then release immediately)
 /\  - slide into or out of (from/to "nowhere")
 s   - legato slide
 S   - shift slide
 - natural harmonic
[n]  - artificial harmonic
n(n) - tapped harmonic
 ~   - vibrato
 tr  - trill
 T   - tap
 TP  - trem. picking
 PM  - palm muting
\n/  - tremolo bar dip; n = amount to dip
 \n  - tremolo bar down
 n/  - tremolo bar up
/n\  - tremolo bar inverted dip
 =   - hold bend; also acts as connecting device for hammers/pulls
 <> - volume swell (louder/softer)
 x   - on rhythm slash represents muted slash
 o   - on rhythm slash represents single note slash

Misc Legend
-----------
 |  - bar
||  - double bar
||o - repeat start
o|| - repeat end
*|  - double bar (ending)
 :  - bar (freetime)
 $  - Segno
 &  - Coda
Tempo markers -  = BPM(8/16=s8/s16), where s8 = swing 8ths, s16 = swing 16ths

Добавлено: 28.03.2012
Другие материалы по этой песне:
  • Аккорды и текст

Страница создана 28.03.2012
http://primanota.ru/animosity/holy-shackles-chords.htm
Привет, Гость.
Предлагаем пройти революционный курс по гитаре.
Подарок от PrimaNota.Ru, забирай!