PrimaNota.ru - самый крупный в мире бесплатный архив песенных текстов, аккордов, табулатур и нот


Animosity - Fake Blood - таба, видео

Регистрация Запомнить меня
Войти через:  Facebook Google Twitter Vk Yandex Mail.ru

Animosity - Fake Blood - таба, видео

Печатать
Просмотров: 206
No one made a tab of this so I'm going to work on this and try to make one and I probley 
it 80% wrong but OH WELLS. =D
BTW, if you noticed I put CGCFAD because I'm not sure if it's drop B or C but I'm 
it's B.


d|-----|  |-------------------------|
a|-----|  |-------------------------|  x2
f|-----|  |-------------------------|
c|-----|  |-1-3-2-3-----1-3-2-3-----|
g|-12/-|  |-1-3-2-3-1*^-1-3-2-3-1*^-|
c|-12/-|  |-1-3-2-3-----1-3-2-3-----|
           . . . .      . . . .

      Both guitars.
d|-------------------------------------------------------------|
a|-------------------------------------------------------------| x4
f|-------------------------------------------------------------|
c|-1-3-2-3-----1-3-2-3------1-3-2-3-----1-3-2-3--2-0-1-0-2-1-0-|
g|-1-3-2-3-1*^-1-3-2-3-1*^--1-3-2-3-1*^-1-3-2-3--2-0-1-0-2-1-0-|
c|-1-3-2-3-----1-3-2-3------1-3-2-3-----1-3-2-3--2-0-1-0-2-1-0-|
   . . . .     . . . .      . . . .     . . . .          . .


I'm not to sure about this part...

d|---------------------|  the lead guitarist plays it once until the
a|---------------------|  second one comes in
f|---------------------|
c|---------------------|   x8
g|-2/3\2-000-1/2\1-000-|
c|-2/3\2-000-1/2\1-000-|
         ...       ...

d|-------------------|       d|---------------|
a|-------------------|       a|---------------|
f|-------------------|  x4   f|---------------| x4
c|-0-3-2-0-2-1-0-----|       c|-0-3-2-0-2-1-0-|
g|-0-3-2-0-2-1-0-1*^-|       g|-0-3-2-0-2-1-0-|
c|-0-3-2-0-2-1-0-----|       c|-0-3-2-0-2-1-0-|
   . . . . . . .                . . . . . .

                                     when the other guitar joins

d|----------------------------------|---------------------------------|
a|----------------------------------|---------------------------------|
f|----------------------------------|---------------------------------|
c|----------------------------------|---------------------------------|
g|---------0-0-0--00--0-0-0-0-0-0-0-|---------0-0---------0-0---------|
c|-4-3-2-1-0-0-0--00--0-0-0-0-0-0-0-|-4-3-2-1-0-0-4-3-2-1-0-0-4-3-2-1-|
           . . .  ..  . . . . . . .           . .         . .

    both guitars.
d|-------------------------------------------------------|
a|-------------------------------------------------------|
f|-------------------------------------------------------|   x2
c|-------------------------------------------------------|
g|---------0-0-0-0-0-0-0---------0-0---------0-0---------|
c|-4-3-2-1-0-0-0-0-0-0-0-4-3-2-1-0-0-4-3-2-1-0-0-4-3-2-1-|
           . . . . . . .         . .         . .


d|-----------------|
a|-----------------|
f|-----------------|
c|-0r--------------|
g|-0r-*pick slide*-|
c|-0r-*pick slide*-|

d|----------|      |--------|
a|----------|      |--------|
f|----------|  x3  |--------|
c|-000--000-|      |-000-00-|
g|-000--000-|      |-000-00-|
c|-000--000-|      |-000-00-|
   ...  ...          ... ..

d|------------------------------------------|
a|------------------------------------------|
f|------------------------------------------|  x2
c|------------------------------------------|
g|--------0-0-0-0-0-0-0---------------------|
c|-4-3-2--0-0-0-0-0-0-0-4-3-2--4-3-2--4-3-2-|
          . . . . . . .

Sorry guys, I'm too lazy to finish this sooooooong. XD
I'm really hungry so I might finish this but maybe not.. someone else should make the 
because I don't want too. =]

/ = Slide
* = AH
^ = Bend
. = Palm Mute
Добавлено: 24.06.2012
Вам также может быть интересно:
Другие материалы по этой песне:
  • Аккорды и текст

Страница создана 18.05.2012
http://primanota.ru/animosity/fake-blood-chords.htm
Привет, Гость.
Предлагаем пройти революционный курс по гитаре.
Подарок от PrimaNota.Ru, забирай!