PrimaNota.ru - самый крупный в мире бесплатный архив песенных текстов, аккордов, табулатур и нот


Animosity - Commoditism - таба, видео

Регистрация Запомнить меня
Войти через:  Facebook Google Twitter Vk Yandex Mail.ru

Animosity - Commoditism - таба, видео

Печатать
Просмотров: 103
Gtr I (B F# B E A# C) - 'Untitled'

    Q=190
   4/4
    Gtr I
     E  E  Q  E  E  Q   E E E E   E E Q
||--------------------|---------|-------|
||o-------------------|---------|-------|
||--------------------|---------|-------|
||--------------------|---------|-------|
||o-12-13-12-11-12-11-|---------|-4-5-4-|
||--12-13-12-11-12-11-|-0-1-3-0-|-4-5-4-|


  E E E E E E E E          E E E E E E E E     E E
|-----------------|---------------------------------|
|-----------------|---------------------------------|
|-----------------|--------5-------7----------------|
|-----------------|---------------------------------|
|-1-0---3---4-----|--------3-0-0-0-5-0-0-0-----0-0--|
|-1-0-0-3-0-4-0-0-|------------0-0-----0-0-----0-0--|


   E E  E E E E   E  E E Q E E E Q   E E E E E E E E E E E E E E E E
|---------------|------------------|----------------------------------||---|
|---------------|------------------|---------------------------------o||---|
|-10---14-------|------------------|----------------------------------||---|
|---------------|------------------|----------------------------------||---|
|--8-0-12-0-0-0-|-9-10-9-8---5-7-5-|---------2-----------------------o||---|
|-----------0-0-|-9-10-9-8-0-5-7-5-|-3-0-5-0---0-3-0-2-0-3-0-1-0-2-0--||---|


                                  1.
    E E Q E E E E Q E E   E E E E E E   E E E E E E
||----------------------|-------------|-------------|
||o---------------------|-------------|-------------|
||----------------------|-------------|-------------|
||----------------------|-------------|-------------|
||o-8-7-8-----5-4-5-----|-------------|-3-4-5-6-----|
||--6-5-6-0-0-3-2-3-0-0-|-0-1-2-0-0-0-|-1-2-3-4-0-0-|


                  2.
  E E Q E E Q     E E E E E E E E E E E E E E E E
|--------------||----------------------------------||-|
|-------------o||---------------------------------o||-|
|--------------||----------------------------------||-|
|-8-7-8--------||----------------------------------||-|
|-6-5-6-7-6-7-o||---------------------------------o||-|
|-------7-6-7--||-0-0-0-0-0-0-0-0-0-0-0-0-0-0-0-0--||-|


  E E E E  Q  Q  Q  Q  Q  Q    E  E  E  E  E  E  Q
|---------------------------|----------------------|
|---------------------------|----------------------|
|---------------------------|-------------------13-|
|---------------------------|-------------12-15----|
|-0-0-0-7-10-12-15-12-10-12-|-------11-14----------|
|-0-0-0-7-10-12-15-12-10-12-|-12-15----------------|


  E E E E Q Q Q Q Q Q   E E E E E E E E
|---------------------|--------------------|
|---------------------|--------------------|
|---------------------|--------------------|
|---------------------|--------------------|
|-0-0-0-0-4-5-4-1-4-1-|--------------------|
|-0-0-0-0-4-5-4-1-4-1-|-7-6-5-6-5-4-3-4----|


  E E E E E E Q Q  Q Q Q Q Q   E E E E E E E E
|----------------------------|-----------------|
|----------------------------|-----------------|
|----------------------------|-----------------|
|----------------------------|-----------------|
|-0-0-0-0-0-6-7-9-10-9-7-6-7-|-6---------------|
|-0-0-0-0-0-6-7-9-10-9-7-6-7-|---5-5-5-5-5-5-5-|


  S S S S S S S S S S S S S S S
|----------------------------------|
|----------------------------------|
|----------------------------------|
|----------------------------------|
|-4-4-4---4-4-4---4-4-4---4-4-4----|
|----------------------------------|


  E E E Q E E E   Q. E E E Q. E   E E E E E E   E E E E E E E E   E E E Q. E
|---------------|---------------|-------------|-----------------|-------------|
|---------------|---------------|-------------|-----------------|-------------|
|---------------|---------------|-------------|-----------------|-------------|
|-------2-------|---------------|-------------|-----------------|-------------|
|-----3---0-1-2-|-2--0-1-2-2--0-|-----1-----0-|-5-----4-----3---|-0-1-2-2-----|
|-0-4-----0-1-2-|-2--0-1-2-2--0-|-1-2---2-1-0-|---4-0---3-0---2-|-0-1-2-2--0--|


  E E E E   E E E E E E E E   E E E E E E E E
|---------|-----------------|--------------------|
|---------|-----------------|--------------------|
|---------|-----------------|--------------------|
|---------|-----------------|-------------7------|
|-1-2-3---|-------1-----0-0-|-5-0-6-0---9---6----|
|-1-2-3---|-0-1-2---2-1-0-0-|-3-0-4-0-7----------|


  E E E E E E Q E E E E E E   Q E E E E E E E E E E E E E E E E
|---------------------------|--------------------------------------|
|---------------------------|--------------------------------------|
|---------------------------|--------------------------------------|
|---------------------------|-------------------------------3-3----|
|-0-0-0-0-0-0-1-4-0-0-0-0-0-|-1-4-0-0-0-0-0-0-0-5-5-2-2------------|
|-0-0-0-0-0-0-1-4-0-0-0-0-0-|-1-4-0-0-0-0-0-0-0---------3-3--------|


    E E E E E E E E   E E E E E E E E   E E E E E E E E E E   E E Q Q
||------------------|-----------------|---------------------|----------|
||o-----------------|-----------------|---------------------|----------|
||------------------|-----------------|-------------------7-|-6-5------|
||------------------|-----------------|---------------------|----------|
||o-1-----4---------|-----------------|-6-----7-----------5-|-4-3-4-4--|
||--1-0-0-4-0-0-0-0-|-0-6-3-1-0-0-1-4-|-6-0-0-7-0-0-0-0-0---|-----6-6--|


  E E E  E E E E E   E  E  E E  E E  E  E
|------------------|----------------------|
|------------------|----------------------|
|------------------|----------------------|
|------------------|----------------------|
|-7------8---------|---10--8-7--8-7--8-10-|
|-9-0-0-10-0-0-0-0-|-0-12-10-9-10-9-10-12-|


  E E E  E E E E E   E  E  E E Q Q
|------------------|----------------||--|
|------------------|---------------o||--|
|-9-----10---------|---14-11--------||--|
|------------------|-----------1-1--||--|
|-7------8---------|---12--9---1-1-o||--|
|---0-0----0-0-0-0-|-0-------0-1-1--||--|


    Q=120                              Q=190
    Q Q Q Q Q Q Q Q Q Q E E Q          Q E E E E Q   E E E E E E E E
||------------------------------||-||--------------|-----------------|
||o----------------------------o||-||o-------------|-----------------|
||--7-5-------3-----6-----------||-||--------------|-----------------|
||------4-0-1---0-1---0-0-1-2---||-||--------------|-------------6-6-|
||o-5-3-4-0-1-1-0-1-4-0-0-1-2--o||-||o-2-2-3-2-0-2-|-5-5-5-5---------|
||------4-0-1---0-1---0-0-1-2---||-||--2-2-3-2-0-2-|---------3-3-----|


                1.              2.
  Q E E E E Q   Q E E Q E E     Q E E Q E E
|-------------|--------------||--------------||----|
|-------------|-------------o||-------------o||----|
|-------------|--------------||--------------||----|
|-------------|--------------||--------------||----|
|-2-2-3-2-0-2-|-6-0-6-4-0-4-o||-0-1-4-3-6-5-o||----|
|-2-2-3-2-0-2-|-6-0-6-4-0-4--||-0-1-4-3-6-5--||----|



Duration Legend
---------------
W - whole; H - half; Q - quarter; E - 8th; S - 16th; T - 32nd; X - 64th; a - acciaccatura
+ - note tied to previous; . - note dotted; .. - note double dotted
Uncapitalized letters represent notes that are staccato (1/2 duration)
Irregular groupings are notated above the duration line
Duration letters will always appear directly above the note/fret number it represents the
duration for.  Duration letters with no fret number below them represent rests.  Multi-
bar rests are notated in the form Wxn, where n is the number of bars to rest for.  Low
melody durations appear below the staff

Tablature Legend
----------------
 h   - hammer-on
 p   - pull-off
 b   - bend
 pb  - pre-bend
 r   - bend release (if no number after the r, then release immediately)
 /\  - slide into or out of (from/to "nowhere")
 s   - legato slide
 S   - shift slide
 - natural harmonic
[n]  - artificial harmonic
n(n) - tapped harmonic
 ~   - vibrato
 tr  - trill
 T   - tap
 TP  - trem. picking
 PM  - palm muting
\n/  - tremolo bar dip; n = amount to dip
 \n  - tremolo bar down
 n/  - tremolo bar up
/n\  - tremolo bar inverted dip
 =   - hold bend; also acts as connecting device for hammers/pulls
 <> - volume swell (louder/softer)
 x   - on rhythm slash represents muted slash
 o   - on rhythm slash represents single note slash

Misc Legend
-----------
 |  - bar
||  - double bar
||o - repeat start
o|| - repeat end
*|  - double bar (ending)
 :  - bar (freetime)
 $  - Segno
 &  - Coda
Tempo markers -  = BPM(8/16=s8/s16), where s8 = swing 8ths, s16 = swing 16ths

Добавлено: 04.03.2012
Другие материалы по этой песне:

Страница создана 04.03.2012
http://primanota.ru/animosity/commoditism-chords.htm
Привет, Гость.
Предлагаем пройти революционный курс по гитаре.
Подарок от PrimaNota.Ru, забирай!