PrimaNota.ru - самый крупный в мире бесплатный архив песенных текстов, аккордов, табулатур и нот


Animals - Its My Life Live - бас-таба, видео

Регистрация Запомнить меня
Войти через:  Facebook Google Twitter Vk Yandex Mail.ru

Animals - Its My Life Live - бас-таба, видео

Печатать
Просмотров: 299
Another great Animals song! (Live version from Tv-show Hullabaloo 1964)

Intro
G]----------------------------------------------------------|
D]--3-5-3-5-3-5-3---------------3-5-3-5-3-5-3---------------|
A]-----------------5--3-5>----------------------5--3-5>-----|
E]----------------------------------------------------------|

Verse (4x)

"It's a hard world to get a break in...."
G]---------------------------------------------------|
D]------------5--5--------55----------5-5------55----|
A]-------5-5-------5-5-----------5--5-----5-5--------|
E]---------------------------------------------------|

Verse pt.2

"But girl there are ways...."
G]------------------------------------------|
D]------------------------------------------|
A]----5--55-3-1-111-3-5-55-3-1-111--3>---5>-|
E]------------------------------------------|

Pre-Chorus

"Hear what I say........"
G]-------------------------------------------------|
D]-------------------------------------------------|
A]------45-4------23-2-----------45-4--------23-2--|
E]--5-----------3-------------5-------------3------|

G]------45-4--------23-2------23-2-------23-2-----|
D]----5-----------3---------3----------3----------|
A]------------------------------------------------|
E]------------------------------------------------|

G]---------454-----232-------232--------454------454-----454-----|
D]-----5---------3--------3----------5---------5--------5--------|
A]---------------------------------------------------------------|
E]---------------------------------------------------------------|


Chorus:
(It's my life and I do what I want...)
G]-----------------------------------------|
D]-----------333-5-555-----------333-5-555-|
A]-3-33--5---------------3-33-5------------|
E]-----------------------------------------|

G]--------------------------------------------|
D]-333-5-555--333-5-555--3-3-3-33-3-5>--------|
A]--------------------------------------------|
E]--------------------------------------------|

Intro riff
G]----------------------------------------------------------|
D]--3-5-3-5-3-5-3---------------3-5-3-5-3-5-3---------------|
A]-----------------5--3-5>----------------------5--3-5>-----|
E]----------------------------------------------------------|

Verse (4x)
"There're 'll be women..."
G]---------------------------------------------------------|
D]------------5--5--------55----------5-5------55----------|
A]-------5-5-------5-5-----------5--5-----5-5--------------|
E]---------------------------------------------------------|

Verse pt.2

"Are you gonna cry...."
G]----------------------------------------------------------|
D]----------------------------------------------------------|
A]----5 55 3 1-111-3-5-55-3-1-111--3>---5>------------------|
E]----------------------------------------------------------|

Pre-Chorus

"Hear what I say........"
G]------45-4------23-2-----------45-4--------23-2--|
D]--5-----------3-------------5-------------3------|
A]-------------------------------------------------|
E]-------------------------------------------------|

G]------45-4--------23-2------23-2-------23-2-----|
D]----5-----------3---------3----------3----------|
A]------------------------------------------------|
E]------------------------------------------------|

G]---------454-----232-------232--------454------454-----454-----|
D]-----5---------3--------3----------5---------5--------5--------|
A]---------------------------------------------------------------|
E]---------------------------------------------------------------|

Chorus:
(It's my life and I do what I want...)
G]-----------------------------------------|
D]-----------333-5-555-----------333-5-555-|
A]-3-33--5---------------3-33-5------------|
E]-----------------------------------------|

G]--------------------------------------------|
D]-333-5----333-5------3-3-3-33-3-5>----------|
A]--------------------------------------------|
E]--------------------------------------------|

Interlude:

G]--------------------------|
D]-----3-5--3-5--3-5--------|
A]--------------------------|
E]--------------------------|

Outro:
(It's my life and I do what I want...)
G]-----------------------------------------|
D]-----------333-5-555-----------333-5-555-|
A]-3-33--5---------------3-33-5------------|
E]-----------------------------------------|
Добавлено: 24.03.2012
Другие материалы по этой песне:
  • Аккорды и текст

Страница создана 24.03.2012
http://primanota.ru/animals/its-my-life-live-chords.htm
Привет, Гость.
Предлагаем пройти революционный курс по гитаре.
Подарок от PrimaNota.Ru, забирай!