PrimaNota.ru - самый крупный в мире бесплатный архив песенных текстов, аккордов, табулатур и нот


Animals - Cheating - бас-таба, видео

Регистрация Запомнить меня
Войти через:  Facebook Google Twitter Vk Yandex Mail.ru

Animals - Cheating - бас-таба, видео

Печатать
Просмотров: 151
The Animals: Cheating

Q=129

Intro                                       Chorus 1 & 2
     W                   W                     Q    E  E  E  E  Q     
G||-------------------|-------------------||-------------------------|
D||-------------------|-------------------||*------------------------|
A||-------------------|-------------------||*--3----L--1--L-----1----|
E||-------------------|-------------------||-----------------3-------|


  Q    E  E  E  E  Q       Q    E  E  E  E  Q       Q    E  E  E  E  Q     
------------------------|------------------------|------------------------|
------------------------|------------------------|------------------------|
--3----L--1--L-----1----|--3----L--1--L-----1----|--3----L--1--L-----1----|
----------------3-------|----------------3-------|----------------3-------|


  Q    E  E  E  E  Q       Q    E  E  E  E  Q       W                 
------------------------|------------------------|-------------------|
------------------------|------------------------|-------------------|
--3----L--1--L-----1----|--3----L--1--L-----1----|--3----------------|
----------------3-------|----------------3-------|-------------------|

                      Interlude
  W                     Q    E  E  E  E  Q       Q    E  E  E  E  Q     
--------------------||------------------------|------------------------|
-------------------*||------------------------|------------------------|
--L----------------*||--3----L--1--L-----1----|--3----L--1--L-----1----|
--------------------||----------------3-------|----------------3-------|

                                                  Verse 1
  Q    E  E  E  E  Q       Q    E  E  E  E  Q       Q    E  E  E  E  Q     
------------------------|------------------------|------------------------|
------------------------|------------------------|------------------------|
--3----L--1--L-----1----|--3----L--1--L-----1----|--3----L--1--L-----1----|
----------------3-------|----------------3-------|----------------3-------|


  Q    E  E  E  E  Q       Q    E  E  E  E  Q       Q    E  E  E  E  Q     
------------------------|------------------------|------------------------|
------------------------|------------------------|------------------------|
--3----L--1--L-----1----|--3----L--1--L-----1----|--3----L--1--L-----1----|
----------------3-------|----------------3-------|----------------3-------|


  Q    E  E  E  E  Q       Q    E  E  E  E  Q       Q    E  E  E  E  Q     
------------------------|------------------------|------------------------|
------------------------|------------------------|------------------------|
--3----L--1--L-----1----|--3----L--1--L-----1----|--3----L--1--L-----1----|
----------------3-------|----------------3-------|----------------3-------|

                         Chorus 3
  Q    E  E  E  E  Q       Q    E  E  E  E  Q       Q    E  E  E  E  Q     
------------------------|------------------------|------------------------|
------------------------|------------------------|------------------------|
--3----L--1--L-----1----|--3----L--1--L-----1----|--3----L--1--L-----1----|
----------------3-------|----------------3-------|----------------3-------|


  Q    E  E  E  E  Q       Q    E  E  E  E  Q       Q    E  E  E  E  Q     
------------------------|------------------------|------------------------|
------------------------|------------------------|------------------------|
--3----L--1--L-----1----|--3----L--1--L-----1----|--3----L--1--L-----1----|
----------------3-------|----------------3-------|----------------3-------|


  Q    E  E  E  E  Q       W                   W                 
------------------------|-------------------|-------------------|
------------------------|-------------------|-------------------|
--3----L--1--L-----1----|--3----------------|--L----------------|
----------------3-------|-------------------|-------------------|

Guitar solo
  Q    E  E  E  E  Q       Q    E  E  E  E  Q       Q    E  E  E  E  Q     
------------------------|------------------------|------------------------|
------------------------|------------------------|------------------------|
--3----L--1--L-----1----|--3----L--1--L-----1----|--3----L--1--L-----1----|
----------------3-------|----------------3-------|----------------3-------|


  Q    E  E  E  E  Q       Q    E  E  E  E  Q       Q    E  E  E  E  Q     
------------------------|------------------------|------------------------|
------------------------|------------------------|------------------------|
--3----L--1--L-----1----|--3----L--1--L-----1----|--3----L--1--L-----1----|
----------------3-------|----------------3-------|----------------3-------|


  Q    E  E  E  E  Q       Q    E  E  E  E  Q       Q    E  E  E  E  Q     
------------------------|------------------------|------------------------|
------------------------|------------------------|------------------------|
--3----L--1--L-----1----|--3----L--1--L-----1----|--3----L--1--L-----1----|
----------------3-------|----------------3-------|----------------3-------|


  Q    E  E  E  E  Q       Q    E  E  E  E  Q       Q    E  E  E  E  Q     
------------------------|------------------------|------------------------|
------------------------|------------------------|------------------------|
--3----L--1--L-----1----|--3----L--1--L-----1----|--3----L--1--L-----1----|
----------------3-------|----------------3-------|----------------3-------|

                                                  Verse 2
  Q    E  E  E  E  Q       Q    E  E  E  E  Q       Q    E  E  E  E  Q     
------------------------|------------------------|------------------------|
------------------------|------------------------|------------------------|
--3----L--1--L-----1----|--3----L--1--L-----1----|--3----L--1--L-----1----|
----------------3-------|----------------3-------|----------------3-------|


  Q    E  E  E  E  Q       Q    E  E  E  E  Q       Q    E  E  E  E  Q     
------------------------|------------------------|------------------------|
------------------------|------------------------|------------------------|
--3----L--1--L-----1----|--3----L--1--L-----1----|--3----L--1--L-----1----|
----------------3-------|----------------3-------|----------------3-------|


  Q    E  E  E  E  Q       Q    E  E  E  E  Q       Q    E  E  E  E  Q     
------------------------|------------------------|------------------------|
------------------------|------------------------|------------------------|
--3----L--1--L-----1----|--3----L--1--L-----1----|--3----L--1--L-----1----|
----------------3-------|----------------3-------|----------------3-------|

                         Chorus 4
  Q    E  E  E  E  Q       Q    E  E  E  E  Q       Q    E  E  E  E  Q     
------------------------|------------------------|------------------------|
------------------------|------------------------|------------------------|
--3----L--1--L-----1----|--3----L--1--L-----1----|--3----L--1--L-----1----|
----------------3-------|----------------3-------|----------------3-------|


  Q    E  E  E  E  Q       Q    E  E  E  E  Q       Q    E  E  E  E  Q     
------------------------|------------------------|------------------------|
------------------------|------------------------|------------------------|
--3----L--1--L-----1----|--3----L--1--L-----1----|--3----L--1--L-----1----|
----------------3-------|----------------3-------|----------------3-------|


  Q    E  E  E  E  Q       W                   W                 
------------------------|-------------------|-------------------|
------------------------|-------------------|-------------------|
--3----L--1--L-----1----|--3----------------|--L----------------|
----------------3-------|-------------------|-------------------|

Chorus 5 (fade out)
  Q    E  E  E  E  Q       Q    E  E  E  E  Q       Q    E  E  E  E  Q     
------------------------|------------------------|------------------------|
------------------------|------------------------|------------------------|
--3----L--1--L-----1----|--3----L--1--L-----1----|--3----L--1--L-----1----|
----------------3-------|----------------3-------|----------------3-------|


  Q    E  E  E  E  Q       Q    E  E  E  E  Q       Q    E  E  E  E  Q     
------------------------|------------------------|------------------------|
------------------------|------------------------|------------------------|
--3----L--1--L-----1----|--3----L--1--L-----1----|--3----L--1--L-----1----|
----------------3-------|----------------3-------|----------------3-------|


  Q    E  E  E  E  Q       Q    E  E  E  E  Q      
------------------------|------------------------||
------------------------|------------------------||
--3----L--1--L-----1----|--3----L--1--L-----1----||
----------------3-------|----------------3-------||




Duration Legend
---------------
W - whole
H - half
Q - quarter
E - 8th
S - 16th
T - 32nd
X - 64th
. - note dotted
|-n-|  - n-tuplets


Tablature Legend
----------------
L - tied note
x - dead note
g - grace note
(n) - ghost note
> - accentuded note
NH - natural harmonic
AH - artificial harmonic
TH - tapped harmonic
SH - semi harmonic
PH - pitch harmonic
h - hammer on
p - pull off
b - bend
br - bendRelease
pb - preBend
pbr - preBendRelease
brb - bendReleaseBend
\n/ - tremolo bar dip
\n - tremolo bar dive
-/n - tremolo bar Release up
/n\ - tremolo bar inverted dip
/n - tremolo bar return
-\n - tremolo bar Release down
S - shift slide
s - legato slide
/ -  slide into from below or out of upwards
\ -  slide into from above or out of downwards
~ - vibrato
W - wide vibrato
tr - trill
TP - tremolo picking
T - tapping
S - slap
P - pop
< - fade in
^ - brush up
v - brush down
Добавлено: 27.03.2012
Другие материалы по этой песне:
  • Аккорды и текст

Страница создана 27.03.2012
http://primanota.ru/animals/cheating-chords.htm
Привет, Гость.
Предлагаем пройти революционный курс по гитаре.
Подарок от PrimaNota.Ru, забирай!