PrimaNota.ru - самый крупный в мире бесплатный архив песенных текстов, аккордов, табулатур и нот


Animals As Leaders - Another Year - таба, видео

Регистрация Запомнить меня
Войти через:  Facebook Google Twitter Vk Yandex Mail.ru

Animals As Leaders - Another Year - таба, видео

Печатать
Просмотров: 249
Уроки эстрадного вокала в Санкт-Петербурге
-------------------------------------------------------------------------------
                             Animals as Leaders
-------------------------------------------------------------------------------

Tuning: 8 string, drop E

The intro is pretty fun to play, you only need the top 6 strings to play it.

e|-----------------------------------------------------------------|
B|----------7-7/9--5-----------------------------------------------|
G|---6--4---6-6/8--4--------6-7/8--4-------------------------------|
D|---6--4-------------------6--------------------------------------|
A|-----------------------------------------------------------------|
E|5b-------------------5b------------------------------------------|

And that's it!
************************************

| /   slide up
| \   slide down
| h   hammer-on
| p   pull-off
| ~   vibrato
| +   harmonic
| x   Mute note
| b   Bend
| pb  Pre-bend
| br  Bend release
| pbr Pre-bend release
| brb Bend release bend

************************************
Добавлено: 03.03.2014
Другие материалы по этой песне:

Страница создана 03.03.2014
http://primanota.ru/animals-as-leaders/another-year-chords.htm
Привет, Гость.
Предлагаем пройти революционный курс по гитаре.
Подарок от PrimaNota.Ru, забирай!