PrimaNota.ru - самый крупный в мире бесплатный архив песенных текстов, аккордов, табулатур и нот


Animals As Leaders - Air Chrysalis - таба, видео

Регистрация Запомнить меня
Войти через:  Facebook Google Twitter Vk Yandex Mail.ru

Animals As Leaders - Air Chrysalis - таба, видео

Печатать
Просмотров: 285
Уроки эстрадного вокала в Санкт-Петербурге
 This was tabbed out using a 7 string, Tosin plays it differently on an 8 string which 
unfortunately I cannot tab out.

This is the tapping part about halfway through the song, and Tosin also plays this part 
in his video about his TAM100 signature guitar.



E |--------------6--------------6--------------6--------------6----|
B |----------------------------------------------------------------|
G |--------4--------------4--------------4--------------4----------|
D |--8--------------8--------------8--------------11---------------|
A |-----------6--------------6--------------6--------------6-------|
E |-----7--------------7--------------7----------------------------|
B |--------------------------------------------------11------------|


--------------6--------------6--------------6--------------6----|
----------------------------------------------------------------|
--------4--------------4--------------4--------------4----------|
--11-------------11-------------13-------------13---------------|
-----------6--------------6--------------6--------------6-------|
-----------------------------------12-------------12------------|
-----11-------------11------------------------------------------|


--------------6--------------6--------------6--------------6----|
----------------------------------------------------------------|
--------4--------------4--------------4--------------4----------|
--13-------------16-------------16-------------16---------------|
-----------6--------------6--------------6--------------6-------|
-----12---------------------------------------------------------|
--------------------16-------------16-------------16------------|


--------------6--------------6--------------6--------------6----|
----------------------------------------------------------------|
--------4--------------4--------------4--------------4----------|
--20-------------20-------------20-------------17---------------|
-----------6--------------6--------------6--------------6-------|
----------------------------------------------------------------|
-----20-------------20-------------20-------------17------------|


--------------6--------------6--------------6--------------6----|
----------------------------------------------------------------|
--------4--------------4--------------4--------------4----------|
--17-------------17-------------13-------------11---------------|
-----------6--------------6--------------6--------------6-------|
-----------------------------------12---------------------------|
-----17-------------17----------------------------11------------|


--------------6-------------------------------------||
----------------------------------------------------||
--------4-------------------------------------------||
--8-------------------------------------------------||
-----------6----------------------------------------||
----------------------------------------------------||
-----8----------------------------------------------||
Добавлено: 16.05.2014
Другие материалы по этой песне:

Страница создана 16.05.2014
http://primanota.ru/animals-as-leaders/air-chrysalis-chords.htm
Привет, Гость.
Предлагаем пройти революционный курс по гитаре.
Подарок от PrimaNota.Ru, забирай!