PrimaNota.ru - самый крупный в мире бесплатный архив песенных текстов, аккордов, табулатур и нот


Animal Holograms - Black Cats - таба, видео

Регистрация Запомнить меня
Войти через:  Facebook Google Twitter Vk Yandex Mail.ru

Animal Holograms - Black Cats - таба, видео

Печатать
Просмотров: 64
Intro:

GTR 1

E-----------------------------------------|
B-9--------9---------9---------9----------|
G----11-------11--------11--------11------|
D--------0--------0---------0---------0---|
A-----------------------------------------|
E-----------------------------------------|

E-----------------------------------------|
B-7--------7---------7---------7----------|
G----10-------10--------10--------10------|
D--------9--------9---------9---------9---|
A-----------------------------------------|
E-----------------------------------------|

GTR 2

E-----------------------------------------|
B-----------------------------------------|
G-----9---9b(10^9)-------9---9b(10^9)-----|
D-7-7---7----------7---7---7----------7---|
A-----------------------------------------|
E-----------------------------------------|

E----------------------------------12-----|
B----------------14--------------14--14---|
G-------11----11----11------11---------11-|
D-15-15----15----------15-15--15----------|
A-----------------------------------------|
E-----------------------------------------|
Добавлено: 25.06.2016
Другие материалы по этой песне:
  • Аккорды и текст

Страница создана 25.06.2016
http://primanota.ru/animal-holograms/black-cats-chords.htm
Привет, Гость.
Предлагаем пройти революционный курс по гитаре.
Подарок от PrimaNota.Ru, забирай!