PrimaNota.ru - самый крупный в мире бесплатный архив песенных текстов, аккордов, табулатур и нот


Animal Crossing - Title Screen Gamecube - таба, видео

Регистрация Запомнить меня
Войти через:  Facebook Google Twitter Vk Yandex Mail.ru

Animal Crossing - Title Screen Gamecube - таба, видео

Печатать
Просмотров: 213
Уроки эстрадного вокала в Санкт-Петербурге
This is from gametabs.net from a user
named Kabukibear, so all the credit should go to him/her. I noticed it wasn't on
here though so I just pasted it to make it
easier to play.

Title Screen                                   
~Animal Crossing~
Composed by: Kazumi Totaka
Arranged by: Justin Lincoln

Drop D Tuning


     E  E  E  E  E  E  E  E     E  E  E  E  E  E  E  E   
E||--------------------------|--------------------------|
B||--------------------------|--1--------3--L--1--------|
G||--2--------2--3--------3--|--------------------2-----|
D||-----3--------------------|-----------------------3--|
A||--------------------------|--0--------------------1--|
D||--3--------3--5--------5--|-----------3--L-----------|


  E  E  E  E  Q    E  E     E  E  E  E  H           E  E  E  E  E  E  E  E   
-------------------------|-----------------------|--------------------------|
-------------------------|-----------1--L--------|--------------------------|
--------------0----------|-----------0--L--------|--2--------2--3--------3--|
--L--0--L--3-------3--3--|--L-----3--------------|-----3--------------------|
--L----------------------|-----1-----------------|--------------------------|
-------------------------|--1--------------------|--3--------3--5--------5--|


  E  E  E  E  E  E  E  E     E  E  E  E  E  E  E  E   
--------------------------|-----------------------3--|
--1--------3--L--1--------|-----------------1--4-----|
--------------------2-----|--------------1-----------|
-----------------------3--|--L--0--L--3--------------|
--0--------------------1--|--L-----------------------|
-----------3--L-----------|-----------------------1--|


  E  E  E  E  E  E  E  E     E  E  E  E  Q    E  E     E  E  E  E  E  E  E  E   
--L--1--------------------|--1----------------------|--------------------------|
--------3--------------3--|-----------3--L----------|-----------3--L--------3--|
-----------3--L-----0-----|-----------2--L----2--3--|--L-----0--2--L--3--0-----|
-----------------1--------|--------0----------------|-----0--------------------|
--------------------------|-----0-------------------|--------------------------|
--L-----------------------|--0----------------------|--5-----------------------|


  E  E  E  E  Q    E  E     E  E  E  E  E  E  E  E     E  E  E  E  E  E  E  E   
--1----------------------|--------------------------|--------------1--------3--|
-----------3--L----------|-----------3--L--------3--|--4--------4--------------|
-----------2--L----2--3--|--L-----0--2--L--3--0-----|-----0--------------------|
--------0----------------|-----0--------------------|--------------0--------1--|
-----0-------------------|--------------------------|--3--------3--------------|
--0----------------------|--5-----------------------|--------------------------|


  E  E  E  E  E  E  E  E     Q    E  Q    E  E  E     E  E  E  E  H         
--L--------3--L--1--------|------------------------|-----------------------|
--------4-----------4-----|--4---------------------|--4--------4--L--------|
-----3-----------------3--|-------0--3----1--3-----|-----1--3--------------|
--L-----------------------|------------------------|-----------------------|
--------------------------|---------------------3--|--1--------------------|
--------------------------|--3---------------------|-----------------------|


   ^                                                                         
   W                    Q     E  E  E   E   Q        E    H        E  E  E   
--11----------------|---L-----8--5--6---8---L----|---L--5g6--------L--5--1--|
--13----------------|---L------------------------|--------------------------|
--13----------------|---L------------------------|--------------------------|
--------------------|--------10--7--8--10---L----|---L--7g8--------L--7--3--|
--------------------|----------------------------|--------------------------|
--------------------|----------------------------|--------------------------|


  E  E  H.              E  E  E  E  E  E  E  E     E  E  E  E  E  E  E  E   
--3--5--L------------|--------------------------|--------------------------|
---------------------|--------------------------|--1-----------------------|
---------------------|-----------0-----2-----3--|-----2--3--5-----0--5--3--|
--5--7--L------------|-----3--------------------|-----3--------------------|
---------------------|--------------0-----1-----|--------------------------|
---------------------|--3-----5-----------------|--3-----------5-----------|


                                        ^                                   
  E  E  Q    E  E  E  E     E  E  E  E  Q    E  E     E  E  E  E  H         
-------------------------|----------------------1--|--L--------------------|
-------------------------|-----------1--3----L-----|-----------1--L--------|
--------3----2-----0--2--|--L-----2-----0----L-----|-----------0--L--------|
-----3----------3--------|-----3--------1----L-----|--------3--------------|
--0-------------------1--|--L----------------------|-----1-----------------|
-------------1-----------|-------------------------|--1--------------------|


                                                                   ^           
  E  E  E  E  E  E  E  E     E  E  Q    E  E  E  E     E  E  E  E  Q    E  E   
--------------------------|-------------------------|----------------------3--|
--1-----------------------|-------------------------|-----------1--3----L-----|
-----2--3--5-----0--5--3--|--------3----2-----0--2--|--L-----2-----0----L-----|
-----3--------------------|-----3----------3--------|-----3--------1----L-----|
--------------------------|--0-------------------1--|--L----------------------|
--3-----------5-----------|-------------1-----------|-------------------------|


  E  E  E  E  H           E  E  E  E  E  E  E  E     E  E  E  E  E  E  E  E   
--L--------------------|--------------------------|--------------------------|
-----------1--L--------|--------------------------|--1--------3--L--1--------|
-----------0--L--------|--2--------2--3--------3--|--------------------2-----|
--------3--------------|-----3--------------------|-----------------------3--|
-----1-----------------|--------------------------|--0--------------------1--|
--1--------------------|--3--------3--5--------5--|-----------3--L-----------|


                                     ^          
  E  E  E  E  Q    E  E     H        H          
-------------------------|-----------1--------||
-------------------------|-----------1--------||
--------------0----1--0--|-----------2--------||
--L--0--L--3-------------|--3--------3--------||
--L----------------------|--------------------||
-------------------------|--------------------||
Добавлено: 31.03.2015
Другие материалы по этой песне:
  • Аккорды и текст

Страница создана 31.03.2015
http://primanota.ru/animal-crossing/title-screen-gamecube-chords.htm
Привет, Гость.
Предлагаем пройти революционный курс по гитаре.
Подарок от PrimaNota.Ru, забирай!