PrimaNota.ru - самый крупный в мире бесплатный архив песенных текстов, аккордов, табулатур и нот


Animal Crossing - Re-tail Theme - таба, видео

Регистрация Запомнить меня
Войти через:  Facebook Google Twitter Vk Yandex Mail.ru

Animal Crossing - Re-tail Theme - таба, видео

Печатать
Просмотров: 125
-------------------------------------------------------------------------------
                   Re-Tail Theme - Animal Crossing: New Leaf
-------------------------------------------------------------------------------
Tabbed by: Presto

Tuning: Normal

e|-1-0-1--0-------------1----1-----1----1-----0----0-----0----0-----1----1---|
B|-----------3--1--------3----3-----3----3-----1----1-----1----1-----3----3--|
G|------------------------3----3-----0----0-----0----0-----0----0-----3----3-|
D|---------------------------------------------------------------------------|
A|---------------------------------------------------------------------------|
E|---------------------------------------------------------------------------|

e|1----1-----0----0-----2----2-----1----1-----0----0-----5----5----3---2-----|
B|-3----3-----1----1-----3----3-----2----2-----1----1-----4----4----4---3----|
G|--0----0-----0----0-----2----2-----2----2-----0----0-----5----5--------2---|
D|---------------------------------------------------------------------------|
A|---------------------------------------------------------------------------|
E|---------------------------------------------------------------------------|

e|2----------------------------1--1-1----------------------------------------|
B|-3-----3----3----3----3----------------------------------------------------|
G|--2-----3----3----3----3---------------------------------------------------|
D|---------5----5----5----5--------------------------------------------------|
A|---------------------------------------------------------------------------|
E|---------------------------------------------------------------------------|

Repeat to heart's content
Добавлено: 31.03.2015
Вам также может быть интересно:
Другие материалы по этой песне:
  • Аккорды и текст

Страница создана 31.03.2015
http://primanota.ru/animal-crossing/re-tail-theme-chords.htm
Привет, Гость.
Предлагаем пройти революционный курс по гитаре.
Подарок от PrimaNota.Ru, забирай!