PrimaNota.ru - самый крупный в мире бесплатный архив песенных текстов, аккордов, табулатур и нот


Animal Collective - The Softest Voice - таба, видео

Регистрация Запомнить меня
Войти через:  Facebook Google Twitter Vk Yandex Mail.ru

Animal Collective - The Softest Voice - таба, видео

Печатать
Просмотров: 101
-------------------------------------------------------------------------------
                             The Softest Voice - Animal Collective
-------------------------------------------------------------------------------
Tabbed by:Zach Bagnell
E-mail:zachbagnell@gmail.com

Tuning: Standard
 Guitar 1 (intro)           Guitar 1 (verse)
                            (Looped throughout)
e|--3--------------------------4-------------------------------------------------|
B|----6--------------------------6-----------------------------------------------|
G|------6--------------------------6---------------------------------------------|
D|8--------------------------8---------------------------------------------------|
A|-------------------------------------------------------------------------------|
E|-------------------------------------------------------------------------------|

Guitar 2
(Looped, but comes in later than Guitar 1)
I suggest Capo 2 for this part
e|----2-------2-------2-------2-----------4-------4-------4-------4----------|
B|--6---6---6---6---6---6---6---6-------6---6---6---6---6---6---6---6--------|
G|8-------8-------8-------8-----------6-------6-------6-------6--------------|
D|---------------------------------------------------------------------------|
A|---------------------------------------------------------------------------|
E|---------------------------------------------------------------------------|

Guitar 2
(Directly following, "but I wont get sad about it")
*This part is subtle, but it's there*
e|2-------2-------2-------2--------------4-------4-------4-------4-----------|
B|--6-------6-------6-------6--------------6-------6-------6-------6---------|
G|----8-------8-------8-------8--------------6-------6-------6-------6-------|
D|------6-------6-------6-------6--------------------------------------------|
A|---------------------------------------------4-------4-------4-------4-----|
E|---------------------------------------------------------------------------|

Bridge
(The bass movement is accurate here, but the chords are my choosing -- play whichever
chord voicings suit you)
   D# C# G# F#   D# C# E   D
e|-2-------------2-------------------------------------------------------------|
B|-2--6--2--2----2--6--14--12--------------------------------------------------|
G|-8--6--5--3----8--6--13--11--------------------------------------------------|
D|-8--6--x--4----8--6--x---x---------------------------------------------------|
A|-6--4--6--4----6--4--14--12--------------------------------------------------|
E|-------4--2----------12--10--------------------------------------------------|

************************************

| /   slide up
| \   slide down
| h   hammer-on
| p   pull-off
| ~   vibrato
| +   harmonic
| x   Mute note
| b   Bend
| pb  Pre-bend
| br  Bend release
| pbr Pre-bend release
| brb Bend release bend

************************************
Добавлено: 27.07.2015
Другие материалы по этой песне:
  • Аккорды и текст

Страница создана 27.07.2015
http://primanota.ru/animal-collective/softest-voice-chords.htm
Привет, Гость.
Предлагаем пройти революционный курс по гитаре.
Подарок от PrimaNota.Ru, забирай!