PrimaNota.ru - самый крупный в мире бесплатный архив песенных текстов, аккордов, табулатур и нот


Animal Alpha - Bundy - таба, бас-таба, видео

Регистрация Запомнить меня
Войти через:  Facebook Google Twitter Vk Yandex Mail.ru

Animal Alpha - Bundy - таба, бас-таба, видео

Печатать
Просмотров: 744
Уроки эстрадного вокала в Санкт-Петербурге
Tab by Adrian Scholze (www.myspace.com/adrianscholze)

Tuning: D#
Drop D

Intro: (Bass)

(Guitar 1)
e#|---------------------------------------------|
b#|---------------------------------------------|
g#|---------------------------------------------|
d#|-0-0-0-0-0-0-0-0-0-0-0-0-0-0-0-0---O.S.V-----|
a#|-0-0-0-0-0-0-0-0-0-0-0-0-0-0-0-0-------------|
d#|-0-0-0-0-0-0-0-0-0-0-0-0-0-0-0-0-------------|


 Guitar 2
e#|--------------------------1/5-----------------------|
b#|----3~~-------3~~------1h3--------3~~--------3~~----|
g#|---2~~-------2~~------2----------2~~--------2~~-----|
d#|--0~~-------0~~-----------------0~~--------0~~------|
a#|----------------------------------------------------|
d#|----------------------------------------------------|

            ''The Riff''    

e#|------------------------------------------------------------------|
b#|------------------------------------------------------------------|
g#|------------------------------------------------------------------|
d#|-0-0-0-0-6-6-3-3-0-0-0-0-3-3-5-5-0-0-0-0-6-6-3-3-0-0-0-3-0-5-0-6--|
a#|-0-0-0-0-6-6-3-3-0-0-0-0-3-3-5-5-0-0-0-0-6-6-3-3-0-0-0-3-0-5-0-6--|
d#|-0-0-0-0-6-6-3-3-0-0-0-0-3-3-5-5-0-0-0-0-6-6-3-3-0-0-0-3-0-5-0-6--|

   B-part: 
I've fallen down, my nose bleeding badly..
e#|-------------------------------------------|
b#|-------------------------------------------|
g#|-------------------------------------------|
d#|--8~~~~~~~~~~------------------------------|
a#|--8~~~~~~~~~~------------------------------|
d#|--8~~~~~~~~~~------------------------------|

A-part
 Boy! Shut your face, shut your...
e#|---------------------------------------------------------------------|
b#|---------------------------------------------------------------------|
g#|---------------------------------------------------------------------|
d#|----0-0-0-0-6-6-3-3-0-0-0-0-3-3-5-5-0-0-0-0-6-6-3-3-0-0-0-3-0-5-0-6--|
a#|----0-0-0-0-6-6-3-3-0-0-0-0-3-3-5-5-0-0-0-0-6-6-3-3-0-0-0-3-0-5-0-6--|
d#|----0-0-0-0-6-6-3-3-0-0-0-0-3-3-5-5-0-0-0-0-6-6-3-3-0-0-0-3-0-5-0-6--|

C-part
When doors are locked, I'm gonna get you You are not safe any place, anywhere
e#|------------------------------------------------------------------
b#|------------------------------------------------------------------
g#|--7-7-7-7-7-7-7-7-7-7-7-7-7-7-7-7-7-7-7-7-7-7-7-7-7-7-7-7-7-7-7-7-
d#|--x-x-x-x-x-x-x-x-x-x-x-x-x-x-x-x-x-x-x-x-x-x-x-x-x-x-x-x-x-x-x-x-
a#|--5-5-5-5-5-5-5-5-5-5-5-5-5-5-5-5-5-5-5-5-5-5-5-5-5-5-5-5-5-5-5-5-
d#|--0-0-0-0-0-0-0-0-0-0-0-0-0-0-0-0-0-0-0-0-0-0-0-0-0-0-0-0-0-0-0-0-

I'm bringing Bundys, have they met you? I'm telling stories, saying what you're gonna do
e#|------------------------------------------------------------------------|
b#|------------------------------------------------------------------------|
g#|--7-7-7-7-7-7-7-7-7-7-7-7-7-7-7-12-12-12-12-12-12-12-12-7-7-7-7-7-7-7-7-|
d#|--x-x-x-x-x-x-x-x-x-x-x-x-x-x-x-x-x-x-x-x-x-x-x-x-x-x-x-x-x-x-x-x-x-x-x-|
a#|--5-5-5-5-5-5-5-5-5-5-5-5-5-5-5-10-10-10-10-10-10-10-10-5-5-5-5-5-5-5-5-|
d#|--0-0-0-0-0-0-0-0-0-0-0-0-0-0-0--0--0--0--0--0--0--0--0-0-0-0-0-0-0-0-0-|

D-part (Chorus)
                I've   fallen   down, my              nose bleeding badly
e#|-----------------------------------------------------------------|
b#|-----------------------------------------------------------------|
g#|-----------------------------------------------------------------|
d#|-8-8-8-8-8-8-8-8\0-0-0-0-0-0-0-0-8-8-8-8-8-8-8-8\0-0-0-0-0-0-0-0-|
a#|-8-8-8-8-8-8-8-8\0-0-0-0-0-0-0-0-8-8-8-8-8-8-8-8\0-0-0-0-0-0-0-0-|
d#|-8-8-8-8-8-8-8-8\0-0-0-0-0-0-0-0-8-8-8-8-8-8-8-8\0-0-0-0-0-0-0-0-|

  badly           I'm where you     want        me
e#|-----------------------------------------------------------------|
b#|-----------------------------------------------------------------|
g#|-----------------------------------------------------------------|
d#|-8-8-8-8-8-8-8-8\0-0-0-0-0-0-0-0-3-3-3-3-5-5-5-5-6-6-6-6-6-6-6-6-|
a#|-8-8-8-8-8-8-8-8\0-0-0-0-0-0-0-0-3-3-3-3-5-5-5-5-6-6-6-6-6-6-6-6-|
d#|-8-8-8-8-8-8-8-8\0-0-0-0-0-0-0-0-3-3-3-3-5-5-5-5-6-6-6-6-6-6-6-6-|

GuitarSolo:                   Ending:
   Guitar-1 :        Guitar-2 :      Guitar-2:         
e#|-------------------8-12--8-12-8-|-12-8-8-12-8-8-12-8-8-12-8-8-12-8-12-8-|
b#|--------------------------------|---------------------------------------|
g#|-7h9-9-9-9-7h9-7-5--------------|-7-7-7-7-7-7-7-7-7-7-7-7-7-7-7-7-------|
d#|------------------7-------------|-Guitar-1-Slow bend up to (8)----------|
a#|--------------------------------|---------------------------------------|
d#|--------------------------------|---------------------------------------|

D-part (Chorus)
    I've fallen down, my nose bleeding badly
e#|-----------------------------------------------------------------|
b#|-----------------------------------------------------------------|
g#|-----------------------------------------------------------------|
d#|-8-8-8-8-8-8-8-8\0-0-0-0-0-0-0-0-8-8-8-8-8-8-8-8\0-0-0-0-0-0-0-0-|
a#|-8-8-8-8-8-8-8-8\0-0-0-0-0-0-0-0-8-8-8-8-8-8-8-8\0-0-0-0-0-0-0-0-|
d#|-8-8-8-8-8-8-8-8\0-0-0-0-0-0-0-0-8-8-8-8-8-8-8-8\0-0-0-0-0-0-0-0-|

       I'm where you want me
e#|-----------------------------------------------------------------|
b#|-----------------------------------------------------------------|
g#|-----------------------------------------------------------------|
d#|-8-8-8-8-8-8-8-8\0-0-0-0-0-0-0-0-3-3-3-3-5-5-5-5-6-6-6-6-6-6-6-6-|
a#|-8-8-8-8-8-8-8-8\0-0-0-0-0-0-0-0-3-3-3-3-5-5-5-5-6-6-6-6-6-6-6-6-|
d#|-8-8-8-8-8-8-8-8\0-0-0-0-0-0-0-0-3-3-3-3-5-5-5-5-6-6-6-6-6-6-6-6-|


Outro:

e#|-----------------------------------------------------------------------|
b#|-----------------------------------------------------------------------|
g#|--------7-7-7-7-7b(9)-7-7-7-7-7-7-7b-7b-o-s-v--------------------------|
d#|-----------------------------------------------------------------------|
a#|--------0-0-0-0-6-0-0-0-0-0-0-0-2-0-3-0--0-0-0-0-6-0-0-0-0-0-0-0-2-3-0-|
d#|-0~~~\--0-0-0-0-6-0-0-0-0-0-0-0-2-0-3-0--0-0-0-0-6-0-0-0-0-0-0-0-2-3-0-|


Prekæs :)
Добавлено: 06.06.2012
Другие материалы по этой песне:
  • Аккорды и текст

Страница создана 18.05.2012
http://primanota.ru/animal-alpha/bundy-chords.htm
Привет, Гость.
Предлагаем пройти революционный курс по гитаре.
Подарок от PrimaNota.Ru, забирай!