PrimaNota.ru - самый крупный в мире бесплатный архив песенных текстов, аккордов, табулатур и нот


Ani Difranco - Untouchable Face - аккорды и текст, таба, видео

Регистрация Запомнить меня
Войти через:  Facebook Google Twitter Vk Yandex Mail.ru

Ani Difranco - Untouchable Face - аккорды и текст, таба, видео

Печатать
Просмотров: 183
Уроки эстрадного вокала в Санкт-Петербурге
Untouchable Face
Ani Difranco
#

From: yoharaguchi@vassar.edu
Date: Thu, 11 Apr 1996 20:51:41 -0400
Subject: Ani_Difranco Tab: Untouchable_Face

Untouchable Face
by Ani DiFranco

Standard Tuning:
Quick 4/4  or also a nice cut time feel...listen to it you'll figure it out
It can be played either way I don't know which way she plays it...but the
first is the way I prefer.....this is off a boot that I have, she may do it
more complicated version (i'd expect) on the new album when it comes out...

part 1:
e----------------------------------------II-------------|
B----------------------------------------II-------------|
G-------0-0-0----0----0---0-0-0---0--0--II--------------|
D----------------------------------------II-------------|
A---10--------10--------------------9---II--------------|
E-------------------10---8------8--------II-------------|
                      1   & 2 &   3   &   4   & 1 & 2 &
3 & 4 & :II

At the 3 it moves to this part before going back to the other for the
chorus (the Fuck You part)

Part 2:
e---------------------------------------------II-------------|
B---------------------------------------------II-------------|
G---------------------------------------------II-------------|
D---------------------------------------------II-------------|
A------------------------------------------9-II-10-----------|
E----8--8/10-10-10/12-12-12/8-8-8/10-10----II----------------|
                       3   4   1  2&   4    1  2&   4  1 2& 4   1
  2&  4


Can also be played on the D string 5th fret moving down to A 5th and 3rd
frets...
either way...I prefer the room to move quickly on the open G-string that
the first way gives you....enjoy!
-yosh!
yoharaguchi@vassar.edu
Добавлено: 04.09.2013
Другие материалы по этой песне:
  • Аккорды и текст

Страница создана 28.02.2012
http://primanota.ru/ani-difranco/untouchable-face-chords.htm
Привет, Гость.
Предлагаем пройти революционный курс по гитаре.
Подарок от PrimaNota.Ru, забирай!