PrimaNota.ru - самый крупный в мире бесплатный архив песенных текстов, аккордов, табулатур и нот


Ani Difranco - Star Matter - текст песни, таба, видео

Регистрация Запомнить меня
Войти через:  Facebook Google Twitter Vk Yandex Mail.ru

Ani Difranco - Star Matter - текст песни, таба, видео

Печатать
Просмотров: 152
Авторы музыки: Ani DiFranco

Intro/Verse:
E---------------------------------------------------------------|
B-------10---8---7-7-7-7-------8-8-8--------12----12-----8-8-8--|
G----11------7---7-7-7-7-------8-8-8--------12----12-----7-7-7--|
D-10---------7---7-7-7-7-------9-9-9--------9-----9------9-9-9--|
A----------------9-9-9-9---7-6---------7-10-----9------7--------|
E---------------------------------------------------------------|

E---------------------------------------------------------|
B---------------------10-10-10--------8-8-8--8-8-8-(8)----|
G--------9-----11-----10-10-10--------7-7-7--7-7-7-(7)----|
D-------10-----12-----9--9--9---------5-5-5--5-5-5-(5)----|
A--7----10-----12---8-----------8-------------------------|
E-----8-----10---------------------8----------------------|  Repeat with vocals

Chorus:

E-----------------------------3-3-3--3-3-3--|
B-----7-7-7-----10-10-10------3-3-3--3-3-3--|
G-----7-7-7-----10-10-10------0-0-0--0-0-0--|
D-----7-7-7-----7--7--7---------------------|
A---5---------8------------3----------------| 2x
E-------------------------------------------|

Repeat Verse and Chorus as you hear in the song.  That's it!
Добавлено: 22.02.2012
Другие материалы по этой песне:
  • Аккорды и текст

Страница создана 22.02.2012
http://primanota.ru/ani-difranco/star-matter-chords.htm
Привет, Гость.
Предлагаем пройти революционный курс по гитаре.
Подарок от PrimaNota.Ru, забирай!