PrimaNota.ru - самый крупный в мире бесплатный архив песенных текстов, аккордов, табулатур и нот


Ani Difranco - Splinter - таба, видео

Регистрация Запомнить меня
Войти через:  Facebook Google Twitter Vk Yandex Mail.ru

Ani Difranco - Splinter - таба, видео

Печатать
Просмотров: 98
Уроки эстрадного вокала в Санкт-Петербурге
There are only four chords in this song:
E|------------9------------12----7----|
B|-11----9----9------------12----7----|
G|-11----9----8------------11----6----|
D|-9-----8----9------------12----7----|
A|-------9----------------------------|
E|------------------------------------|


This gets repeated three times:
E|-------------------------------------------------------------------|
B|----11-----11---------9-----9---------9-----9---------9-----9------|
G|----11-----11---------9-----9---------8-----8---------8-----8------|
D|-9------9------9-9----8-----8---------9-----9---------9-----9------|
A|-------------------9-----9-----9-9-0-----0-----0-0-0-----0-----0-0-|
E|-------------------------------------------------------------------|

Something bout this landscape just don't feel right...



Then this once (sometimes she repeats it twice):
E|-12--12--12--12--12-12-7--7--7--7--7-7-9--9--9--9--9-9-9--9--9--9--9-9-|
B|-12--12--12--12--12-12-7--7--7--7--7-7-9--9--9--9--9-9-9--9--9--9--9-9-|
G|-11--11--11--11--11-11-6--6--6--6--6-6-8--8--8--8--8-8-8--8--8--8--8-8-|
D|-12--12--12--12--12-12-7--7--7--7--7-7-9--9--9--9--9-9-9--9--9--9--9-9-|
A|-----------------------------------------------------------------------|
E|-----------------------------------------------------------------------|

Like we can't...  even...  bring ourselves to sweat...

The rhythm is kind of a syncopated beat, listen to recording to get the feel of it..
Добавлено: 19.10.2013
Другие материалы по этой песне:
  • Аккорды и текст

Страница создана 19.10.2013
http://primanota.ru/ani-difranco/splinter-chords.htm
Привет, Гость.
Предлагаем пройти революционный курс по гитаре.
Подарок от PrimaNota.Ru, забирай!