PrimaNota.ru - самый крупный в мире бесплатный архив песенных текстов, аккордов, табулатур и нот


Ani Difranco - Rainy Parade - таба, видео

Регистрация Запомнить меня
Войти через:  Facebook Google Twitter Vk Yandex Mail.ru

Ani Difranco - Rainy Parade - таба, видео

Печатать
Просмотров: 47
-------------------------------------------------------------------------------
                             Ani DiFranco -- Rainy Parade 
-------------------------------------------------------------------------------
Tabbed by:caughtinglory

Off the album Allergic to Water

The most difficult part of this tab are the two four fret stretches. If you have a smaller guitar to learn this
on, that would be ideal. Or,you know, grow longer fingers. :)I didn't write out the exact plucking pattern here,
or how frequent each note is played, as I feel it's easy to discern. 

Tuning:

Intro/Verse/Outro:

e|----------------------------------------|-----------------------------------|
B|----------------------------------------|-----------------------------------|
G|--9--------9------9--------9-----9------|-------9---------------------------|
D|----------------------------------------|-----------------------------------|
A|--10-------11-----12------11-----10-----|-------11--------------------------|
E|------8--------8------8------8----------|----8------------------------------|
                                             Last chord before chorus

Chorus 

e|---------------------------------------------------------------------------|
B|--1--1--3--3--5--5--5--1--1--3--3------------------------------------------|
G|--2--0--4--0--5--5--5--2--0--4--0------------------------------------------|
D|--------------X--X--0------------------------------------------------------|
A|--------------X--X--0------------------------------------------------------|
E|--1--1--3--3--5--4--2--1--1--3--0------------------------------------------|



************************************

| /   slide up
| \   slide down
| h   hammer-on
| p   pull-off
| ~   vibrato
| +   harmonic
| x   Mute note
| b   Bend
| pb  Pre-bend
| br  Bend release
| pbr Pre-bend release
| brb Bend release bend

************************************
Добавлено: 15.07.2015
Другие материалы по этой песне:
  • Аккорды и текст

Страница создана 15.07.2015
http://primanota.ru/ani-difranco/rainy-parade-chords.htm
Привет, Гость.
Предлагаем пройти революционный курс по гитаре.
Подарок от PrimaNota.Ru, забирай!