PrimaNota.ru - самый крупный в мире бесплатный архив песенных текстов, аккордов, табулатур и нот


Ani Difranco - Modulation - аккорды и текст, видео

Регистрация Запомнить меня
Войти через:  Facebook Google Twitter Vk Yandex Mail.ru

Ani Difranco - Modulation - аккорды и текст, видео

Печатать
Просмотров: 114
Modulation
Ani Difranco
-------------------------------------------------------------------------------
                                                MODULATION - Ani DiFranco
-------------------------------------------------------------------------------

Tabbed by: Sean Sullivan
E-mail: themindsnexus@hotmail.com

Tuning: Standard EADGBe

CAPO 3RD FRET

Standard Tuning

Here are the chords for Modulation. Naturally it defeats the purpose of Ani's music to tab it 
note for note, but here are all the chords. 

These chords are relative to the capo, but if you're like me and hate transcribing songs that 
are mostly barre chords to capo, see below for a tab with the actual positions on the fretboard.

Intro/Verse

e|--7----0---5----3---------------0-----------|
B|--8----8---3----0---------------0-----------|
G|--7----7---0----0----0h2--------------------|
D|--9----8---0----0----0h2-0h2----------------|
A|--7----7---x----x--------0h2----------------|
E|-----------5----3-------------0-------------|

Chorus

e|--------------------------------------------|
B|-------------------(5)*---------------------|
G|--12---12---12------8-----------------------|
D|--12---12---12------7-----------------------|
A|--10----x----x------x-----------------------|
E|-------11---12------7-----------------------|


Bridge

e|-------------------------------------------------|
B|--------(6)*(4)*----------------------------------|
G|-12---9--7---5------------------------------9-----|
D|-12---9--7---5----x3-------14---12------12--8-----|
A|-10---7--5---3-------------14---12------12--10----|
E|---------------------------12---11------10--8-----|


* These notes are fingered by Ani but she doesn't really play them.


-------------------------------------------------------------------------------

Here is the same tab with the actual notes (not relative to capo). 

Open strings are still 0.

Intro/Verse

e|--10----0----8----6---------------0-----------|
B|--11----11---6----0---------------0-----------|
G|--10----10---0----0----0h5--------------------|
D|--12----11---0----0----0h5-0h5----------------|
A|--10----10---x----x--------0h5----------------|
E|-------------8----6-------------0-------------|

Chorus

e|---------------------------------------------|
B|-------------------(8)*----------------------|
G|--15---15---15------11-----------------------|
D|--15---15---15------10-----------------------|
A|--13----x----x------x------------------------|
E|-------14---15------10-----------------------|


Bridge

e|------------------------------------------------------|
B|---------(9)*-(7)*------------------------------------|
G|-15---12--10---8-------------------------------12-----|
D|-15---12--10---8----x3-------17---15------15---11-----|
A|-13---10--8----6-------------17---15------15---13-----|
E|-----------------------------15---14------13---11-----|


************************************

| /   slide up
| \   slide down
| h   hammer-on
| p   pull-off
| ~   vibrato
| +   harmonic
| x   Mute note
| b   Bend
| pb  Pre-bend
| br  Bend release
| pbr Pre-bend release
| brb Bend release bend

************************************
Добавлено: 11.07.2013
Другие материалы по этой песне:
  • Аккорды и текст

Страница создана 21.05.2012
http://primanota.ru/ani-difranco/modulation-chords.htm
Привет, Гость.
Предлагаем пройти революционный курс по гитаре.
Подарок от PrimaNota.Ru, забирай!