PrimaNota.ru - самый крупный в мире бесплатный архив песенных текстов, аккордов, табулатур и нот


Ani Difranco - Lag Time - текст песни, таба, видео

Регистрация Запомнить меня
Войти через:  Facebook Google Twitter Vk Yandex Mail.ru

Ani Difranco - Lag Time - текст песни, таба, видео

Печатать
Просмотров: 103
Intro:
e--------------0-0-0-----0-0-0--|
b--------------0-0-0-----0-0-0--|
g----0h2bp0----0-0-0-----0-0-0--|
d----------------0-0-------0-0--|   (Repeat this riff 4x before moving on)
a-0h3--------2---2-2-s5-0--0-0--|
d------------2---2-2-s5-0--0-0--|

e-0--------|
b----0-----|
g-------0--|
d----------|
a----------|
d----------|

e---0--0-0-0---0---0-0-0-0--|
b---1-p0--0-0--1--p0-0-0-0--|
g---0--0-------0---0-0-0-0--|
d-2----2------2----2-2-2-2--|
a-3-----------3----3-3-3-3--|
d------------------0-0-0-0--|

e-----9-8-7-3--|
b-----9-8-7-3--|
g--------------|
d--------------|  (Repeat 3x before moving on)
a-----9-8-7-3--|
d-0-9----------|

e-----2--|
b----2---|
g---0----|
d--------|
a-2------|
d--------|

Verses*:
e---0-0-0---2-2--2--2-----3-3-3-3---0-0-0-0---|
b---0-0--0--3-3---3-------1-1-1--0--5-5--0-0--|
g-0-0-0-----0-0-------0-0-0-0-0-----4-4-------|
d-0---0-----------------2---2---------0-------| (Repeat 2x before moving on)
a-2---2----2------------3---3---------0-------|
d-2---2---------------------0------5--5-------|

Chorus:
e---------0-0-0---------0-0-0--0--|
b---------0--0-0--------0--0-0-0--|
g---------0-------------0------0--| (Repeat 2x after 1st and 2nd verse)
d-5-6-7-7-7-----7-7-6-5-5------5--| (Repeat 4x before going on to outro)
a-5-6-7-7-7-----7-7-6-5-5------5--|
d-5-6-7-7-7-----7-7-6-5-5------5--|
_______________________________________________________________________

*Bridge after secong and third verses:
" Your... 20/20 arms crossed...."
"........tapping her toes......perhaps"

e---2--|
b--2---|
g-3----|
d------|
a------|
d------|

e---4--4-4---|
b--4----4-4--|
g-5---5------|
d-----0------| (Repeat 4x then go to chorus)
a------------|
d------------|

....................................................................
Repeat first and second riff in intro after chorus, before the next verse.
Outro is the same as the intro
Добавлено: 23.08.2013
Другие материалы по этой песне:
  • Аккорды и текст

Страница создана 06.04.2012
http://primanota.ru/ani-difranco/lag-time-chords.htm
Привет, Гость.
Предлагаем пройти революционный курс по гитаре.
Подарок от PrimaNota.Ru, забирай!