PrimaNota.ru - самый крупный в мире бесплатный архив песенных текстов, аккордов, табулатур и нот


Ani Difranco - Jukebox - текст песни, бас-таба, видео

Регистрация Запомнить меня
Войти через:  Facebook Google Twitter Vk Yandex Mail.ru

Ani Difranco - Jukebox - текст песни, бас-таба, видео

Печатать
Просмотров: 146
Уроки эстрадного вокала в Санкт-Петербурге
Авторы музыки: Ani DiFranco
Авторы текста: Ani DiFranco
Standard Tuning

Intro
|------|
|------|
|------|
|-0--0-|

Verse
|-----------------------------|
|-----------------------------|
|----------------------2--0---|
|-0--0---------0--0---------3-|

Chorus
"and she drinks herself..." 
|----------------------------------|
|----------------------------------|
|----------2--3---------------2--3-|
|-0--2--3------------0--2--3-------|

"this dance is mine..."
|-------------------------------------|
|-------------------------------------|
|----------2--3----5-----3----5-----3-|
|-0--2--3-----------------------------|

Bridge
"she says leave me alone..."
|--------------------------------------|
|-2------------2------1------0---------|
|------------------------------------4-|
|--------------------------------------|

"i got a darkness..." "song begins again..."
|--------------------------------------------------|
|--------------------------------------------------|
|--------------------------------------------------|
|-8---8-8---8-9--9-9--9-8--8-8--8-7--7-7---------7-|

"song begin again..."
|---------------------------------------|
|---------------------------------------|
|---------------------------------------|
|-0--0-----3---0----------0--0----2---3-|

Verse
"she appreciates the phone calls..."
|----------------------------------------------0-|
|------------2-----------------------------------|
|--------2-------------------------------2-------|
|-0--0-------------------------0--0--------------|

Chorus Variation
|--------------------------------------------|
|--------------------------------------------|
|----------2--3----5----3---5----3---5-----5-|
|-0--2--3------------------------------------|

|------------------------------------------|
|------------------------------------------|
|-l/12----10-----------------l/12----10----|
|---------------8---10--10---------------8-|
Добавлено: 07.04.2012
Другие материалы по этой песне:
  • Аккорды и текст

Страница создана 07.04.2012
http://primanota.ru/ani-difranco/jukebox-chords.htm
Привет, Гость.
Предлагаем пройти революционный курс по гитаре.
Подарок от PrimaNota.Ru, забирай!