PrimaNota.ru - самый крупный в мире бесплатный архив песенных текстов, аккордов, табулатур и нот


Ani Difranco - Garden of Simple - текст песни, таба, видео

Регистрация Запомнить меня
Войти через:  Facebook Google Twitter Vk Yandex Mail.ru

Ani Difranco - Garden of Simple - текст песни, таба, видео

Печатать
Просмотров: 115
Уроки эстрадного вокала в Санкт-Петербурге
-------------------------------------------------------------------------------
                             Garden Of Simple - Ani DiFranco
-------------------------------------------------------------------------------
Tabbed by: takedasoft

Tuning is probably CGDGCC, I guess from The video on
YouTube(https://www.youtube.com/watch?v=XFCwVMJtEgc).
I don't know clearly whether is 5th string G or A. Please tell me if you know.

In the album, she has played in more delicate arpeggio and loose rhythms.
I think you play freely and slowly to be closer to the album version.

Intro:
                                             twice
C|----------------------------------0--------------|--------------|
C|--------------------0--0h4--0h4p0----------------|------0-------|
G|------------0--0h5------------------0------------|-----/5-------|
D|-------------------------------------------------|--------------|
G|-------------------------------------------------|--------------|
C|---0h5-0h5---------------------------------------|-----/5-------|


Intro & Verse:

some crazy fucker ..
C|-------------------------7p0-------|------9p0-------------0--------------|
C|--------4p0------------------------|----------------------0--------------|
G|--0----------0------/7--------7----|-/9--------9-----10--------10--------|
D|---------------0---------------0---|----0-------0----------------0-------|
G|------0----------------0-----------|-----------------10------------------|
C|--0-----------------/7-------------|-/9--------------10------------------|

C|---------------------------0-------|---------0--------0------------------|
C|---------------------------0-------|---------0--------0---0---0----0--0--|
G|--12------\9-------\7--------7-----|-0h2--------2---------2---0---/5--5--|
D|------0--------0--------0-------0--|-0h2----------2-------2---0----------|
G|-----------------------------------|-------------------------------------|
C|--12------\9-------\7--------------|------0-----------------------/5-----|

                                             5 times (end of 5th is bellow)
                                                                                         
                                          and BANG that's when...
C|                                   |---------0--------2--------------|
C|                                   |---------0--------0--------------|
G|                                   |-0h2--------2-----2--------------|
D|                                   |-0h2----------2---0--------------|
G|                                   |------------------0--------------|
C|                                   |------0-----------2--------------|



Chorus:

we were standing in a garden ...
C|---5--5-----------|---5--5-----------|--5-------5------|---2----0h20---|
C|----------4----4--|----------4----4--|-----4--------4--|---0-----------|
G|---5--5---4----4--|---5--5---4----4--|--5--4----5---4--|---2-----------|
D|------------------|------------------|-----------------|---------------|
G|------------------|------------------|-----------------|---------------|
C|---5--5---4----4--|---5--5---4----4--|--5--4----5---4--|---2-----------|

                                                             2 times
                                                                                                                  
 Outro:

C|--------------|----------------|--------------|-----------2p0h2----------|
C|--5--5--4--4--|--7--7--12--11--|--5--5--4--4--|--5-4-5-4--0--------0--0--|
G|--5--5--4--4--|--7--7--12--11--|--5--5--4--4--|--5-4-5-4--2-------/5--5--|
D|--------------|----------------|--------------|-----------0--------------|
G|--------------|----------------|--------------|--------------------------|
C|--5--5--4--4--|--7--7--12--11--|--5--5--4--4--|--5-4-5-4--2-------/5-----|

C|-------------------------7p0-------|------9p0-------------0--------------|
C|--------4p0------------------------|----------------------0--------------|
G|--0----------0------/7--------7----|-/9--------9-----10--------10--------|
D|---------------0---------------0---|----0-------0----------------0-------|
G|------0----------------0-----------|-------------------10----------------|
C|--0-----------------/7-------------|-/9--------------10------------------|

C|-----------------------------------|--------------0-----|
C|-----------------------------------|-------0------0-----|
G|--12-----\9--------\7-------\5-----|----2-----2---4-----|
D|------0-------0--------0-------0---|--------------2-----|
G|-----------------------------------|--------------0-----|
C|--12-----\9--------\7-------\5-----|--0-----------0-----|

************************************
| /   slide up
| \   slide down
| h   hammer-on
| p   pull-off
************************************
Добавлено: 09.06.2014
Другие материалы по этой песне:
  • Аккорды и текст

Страница создана 17.05.2012
http://primanota.ru/ani-difranco/garden-of-simple-chords.htm
Привет, Гость.
Предлагаем пройти революционный курс по гитаре.
Подарок от PrimaNota.Ru, забирай!