PrimaNota.ru - самый крупный в мире бесплатный архив песенных текстов, аккордов, табулатур и нот


Ani Difranco - Fire Door - текст песни, таба, видео

Регистрация Запомнить меня
Войти через:  Facebook Google Twitter Vk Yandex Mail.ru

Ani Difranco - Fire Door - текст песни, таба, видео

Печатать
Просмотров: 136
Artist: Ani Difranco
Title: Firedoor
Album: Living in Clip, and probably one or two more

Transcribed by: Launchpad Domer
Contact: tmillea@nd.edu

Tuning: Standard, no capo

This is a really fun song, just have a blast and get funky on the little
breakdown parts...  Fingerpick, obviously.  Oh, and Go Irish.

Main Riff:
        A->D/B      G      D      A
e|----------------------------------------|
b|------2h3---3-----3------7------2-------|
g|------2-----2-----0------7------2-------|
d|----------------------------------------|
a|------0h2---2------------5------0-------|
E|------------------3---------------------|

"And I'd make such a good statistic..."
e|-----------------------|
b|------2h3-----2h3------|
g|------2-------2--------|
d|-----------------------|
a|------0-------0--------|
E|-----------------------|

Pat Millea
U. of Notre Dame
210 Keough Hall
Notre Dame, IN  46556-5656
(219) 634-4240
tmillea@nd.edu
     
Добавлено: 15.12.2013
Другие материалы по этой песне:
  • Аккорды и текст

Страница создана 31.03.2012
http://primanota.ru/ani-difranco/fire-door-chords.htm
Привет, Гость.
Предлагаем пройти революционный курс по гитаре.
Подарок от PrimaNota.Ru, забирай!