PrimaNota.ru - самый крупный в мире бесплатный архив песенных текстов, аккордов, табулатур и нот


Ani Difranco - Company - текст песни, таба, видео

Регистрация Запомнить меня
Войти через:  Facebook Google Twitter Vk Yandex Mail.ru

Ani Difranco - Company - текст песни, таба, видео

Печатать
Просмотров: 114
Tuning: Standard
Capo: Can Be Played On 2nd And Open

Intro and Verse:
(Repeat four times for intro and four times for verse)
e--------------0-0---0-----0-0-0------5-5-----5-5----|
b-------------0--0--0-----0--0-0-----5--5----5--5----|
g------------0---0-0-----0---0-0----0-------0--------|
d------0-0h2-----------------------------------------|
a--0h2-----------------------------------------------|
e-----------------------3---3------s5------5---------|

Til I get to know you................
(Repeat twice)
e----------------------------------------------------|
b----7-7----5--5-----3--3------2---------------------|
g----7-7----6--6-----0--0-----2----------------------|
d----------------------------------------------------|
a----------------------------------------------------|
e--7---7--5----5---3----3----2-----------------------|
Добавлено: 21.09.2013
Другие материалы по этой песне:
  • Аккорды и текст

Страница создана 30.05.2012
http://primanota.ru/ani-difranco/company-chords.htm
Привет, Гость.
Предлагаем пройти революционный курс по гитаре.
Подарок от PrimaNota.Ru, забирай!