PrimaNota.ru - самый крупный в мире бесплатный архив песенных текстов, аккордов, табулатур и нот


Ani Difranco - 78% H2O - текст песни, таба, видео

Регистрация Запомнить меня
Войти через:  Facebook Google Twitter Vk Yandex Mail.ru

Ani Difranco - 78% H2O - текст песни, таба, видео

Печатать
Просмотров: 147
Tuning: Standard
Capo: 7

Intro:
(Repeat four times)
e-------------------------------------------------------|
b-------------------------------------------------------|
g----0-------0------0-----------------------------------|
d---0-------0-------0-----------------------------------|
a------------------2--2-3-5-----------------------------|
e-6-----6--5---5-3--------------------------------------|

end of intro and verse:
(Only repeat twice after intro then continue into verse)
e--3---3-3--3---3--3---3--3--3---------------------------|
b--3--3--3--3--3---3--3---3--3---------------------------|
g--0-0---0--0-0----0-0----0--0---------------------------|
d--------------------------------------------------------|
a-----------------2-------3------------------------------|
e-3------3--2--------------------------------------------|
Добавлено: 21.07.2013
Другие материалы по этой песне:
  • Аккорды и текст

Страница создана 22.05.2012
http://primanota.ru/ani-difranco/78-h2o-chords.htm
Привет, Гость.
Предлагаем пройти революционный курс по гитаре.
Подарок от PrimaNota.Ru, забирай!