PrimaNota.ru - самый крупный в мире бесплатный архив песенных текстов, аккордов, табулатур и нот


Angus & Julia Stone - Wasted - таба, видео

Регистрация Запомнить меня
Войти через:  Facebook Google Twitter Vk Yandex Mail.ru

Angus & Julia Stone - Wasted - таба, видео

Печатать
Просмотров: 355
Авторы: Angus Stone, Julia Stone

Wasted Solo: Angus and Julia Stone
p= pull off
s= slide 
h= hammer on
|--------------------------------------------------------------------------------------|
|--------3--------------3-5-p-3-5-5-p-3-5-5-p-3-5-5-p-3--5-s-7-7-s-8-8-s-10-10---------|
|--2-h-4---2-h-4--2-h-4----------------------------------------------------------------|
|--------------------------------------------------------------------------------------|
|--------------------------------------------------------------------------------------|
|--------------------------------------------------------------------------------------|

|--------------------------------------7-8-10-8-7--------------------------------------|
|--8-p-7--7-p-5--5-p-3--3-h-5-7-8-10-8------------10-8--8-8-8-p-7-8-8-8-p-7------------|
|-------------------------------------------------------9-9-9-----9-9-9----------------|
|--------------------------------------------------------------------------------------|
|--------------------------------------------------------------------------------------|
|--------------------------------------------------------------------------------------|

|------------------------------------------7-8-10-10-----------------------------------|
|-7-h-8--8-h-10--10-h-12-12---------7-8-10---------------------------------------------|
|-9------9---11--11------11-----7-9----------------------------------------------------|
|---------------------------7-9--------------------------------------------------------|
|--------------------------------------------------------------------------------------|
|--------------------------------------------------------------------------------------|

And thats it, it took me very long to get perfect but i am pretty sure it's right. So enjoy!!!:)
Добавлено: 15.03.2012
Другие материалы по этой песне:
  • Аккорды и текст

Страница создана 15.03.2012
http://primanota.ru/angus-and-julia-stone/wasted-chords.htm
Привет, Гость.
Предлагаем пройти революционный курс по гитаре.
Подарок от PrimaNota.Ru, забирай!