PrimaNota.ru - самый крупный в мире бесплатный архив песенных текстов, аккордов, табулатур и нот


Angus & Julia Stone - Soldier - текст песни, таба, видео

Регистрация Запомнить меня
Войти через:  Facebook Google Twitter Vk Yandex Mail.ru

Angus & Julia Stone - Soldier - текст песни, таба, видео

Печатать
Просмотров: 247
Уроки эстрадного вокала в Санкт-Петербурге
Авторы: Angus Stone, Julia Stone

Hi guys, my first tab, but it sounds pretty spot on for me ! so have a go and let me 
what you think, peace :)

Intro & Verse
--------------------------|
----3---------1-----------|
----2---------2-----------|
--3---------3-------------|
--------------------------|
--------------------------|

Chorus
----------------------------|
----1------1-----1-----1----|
----0------0-----0-----0----|
--2------2-----2-----2------|
----------------------------|
----------------------------|
I'm a solider but...
--------------------------------|
-----1------1-------1-------1---|
-----2------2-------2-------2---|
---3------0-------3-------0-----|
--------------------------------|
--------------------------------|
Don't know how to fight
Добавлено: 14.06.2012
Другие материалы по этой песне:

Страница создана 08.05.2012
http://primanota.ru/angus-and-julia-stone/soldier-chords.htm
Привет, Гость.
Предлагаем пройти революционный курс по гитаре.
Подарок от PrimaNota.Ru, забирай!