PrimaNota.ru - самый крупный в мире бесплатный архив песенных текстов, аккордов, табулатур и нот


Angus & Julia Stone - Purple Skivvy - таба, видео

Регистрация Запомнить меня
Войти через:  Facebook Google Twitter Vk Yandex Mail.ru

Angus & Julia Stone - Purple Skivvy - таба, видео

Печатать
Просмотров: 164
Авторы: Angus Stone, Julia Stone

PURPLE SKIVVY - ANGUS & JULIA STONE 
From the Album "Hollywood" 
 

122bpm 
84 bars 4/4 
Standard Tuning

Guitar I 
Guitar II 
Bass
Lyrics

~ Hold
/ Slide Up
\ Slide Down
h Hammer on
p Pull ogg


Guitar I 
  (Riff 1)                            (Riff 2)
E|-11~-----9--12--|-9--11--7--5~---|  |5-5-5-4-2~------|----------------|
B|-12~----10--14--|10--12--9--7~---|  |7-7-7-5-4~------|----------------|
G|----------------|----------------|  |----------------|----------------|
D|----------------|----------------|  |----------------|----------------|
A|----------------|----------------|  |----------------|----------------|
E|----------------|----------------|  |----------------|----------------|

 (Solo 1)                             (Solo 2)                            
E|----------------|----------------|  |11h12p11--------|----------------| 
B|----------------|----------------|  |-------12-10-9-7|-10-9-5~--4-----|
G|----------------|-----8-----9\---|  |----------------|------------4~--|
D|----------------|9-11-----11-----|  |----------------|----------------|
A|--------9-11-12-|----------------|  |----------------|----------------|
E|----------------|----------------|  |----------------|----------------|

Guitar I Pattern: 

(Riff 1)x2
(Riff 2)x2
(Wait 18 Bars)
(Riff 1)x2
(Wait 22 Bars) 
(Riff 1)x2
(Solo 1)
(Wait 2 bars) 
(Solo 2)
(Riff 2)
(Wiat 10 Bars)
(Riff 1)x3

Guitar II
Main
E|----------------|----------------|        
B|--4---2---------|--4---2---------|       
G|--4---2-2/------|--4---2-2/------|     Guitar II and Bass Pattern:
D|----------------|----------------|     12x Main
A|----------------|----------------|      1x Chorus
E|----------------|----------------|     10x Main
                                          1x Chorus
Chorus                                    1x Main
                                          1x Chorus
E|----------------|----------------|     10x Main
B|-5---5---5---5--|-5---5---5---5--|      1x Chorus 
G|-4---4---4---4--|-4---4---4---4--|      7x Main 
D|----------------|----------------|
A|----------------|----------------|
E|----------------|----------------|

Bass 
Main
G|----------------|----------------|     
D|----------------|----------------|
A|2~------2-------|2~------2-------|
E|----------2-----|----------2-----|      
                                          Bass Pattern^
Chorus                                    (Same as Guitar II) 
G|----------------|----------------|
D|----------------|----------------|
A|----------------|----------------|
E|--0---0---0---0-|--0---0---0---0-|

Lyrics 

Haven't felt my heart beat in fifteen years
I haven't felt my heart beat
Since I saw you standing here
Love is not a war, but I've got to fight
When in this life will I get love right?

I, I haven't got what I need from you

Purple skivvy remarks, you know what they are
Memories attached to photographs
I'm one of those girls who carries on the lie
I'm one of those people who never get facts right

I, I haven't got what I need from you

I, I haven't got what I need from you

What I need from you, what I need
I, I haven't got what I need from you
What I need from you, what I need from you
What I need from you

Добавлено: 14.04.2012
Другие материалы по этой песне:
  • Аккорды и текст

Страница создана 14.04.2012
http://primanota.ru/angus-and-julia-stone/purple-skivvy-chords.htm
Привет, Гость.
Предлагаем пройти революционный курс по гитаре.
Подарок от PrimaNota.Ru, забирай!