PrimaNota.ru - самый крупный в мире бесплатный архив песенных текстов, аккордов, табулатур и нот


Angus & Julia Stone - Private Lawns - таба, видео

Регистрация Запомнить меня
Войти через:  Facebook Google Twitter Vk Yandex Mail.ru

Angus & Julia Stone - Private Lawns - таба, видео

Печатать
Просмотров: 240
Авторы: Sammy Fain, Angus Stone, Julia Stone, Paul Francis Webster

Private Lawns  - Angus And Julia Stone

Standar Tuning no capo as they play it live...

verse -repeat
e----------------------------------|
B-----------1--1--1--1-1-1-1-------|
G-----------2--2--2--2-2-2-2-------|
D----------------------------------|
A---0------------------------------|
E----------------------------------|
bridge -repeat
e----------------------------------|
B-----------0--0--0--0-0-0-0-------|
G-----------2--2--2--2-2-2-2-------|
D----------------------------------|
A---0------------------------------|
E----------------------------------|
Добавлено: 19.05.2012
Другие материалы по этой песне:

Страница создана 19.05.2012
http://primanota.ru/angus-and-julia-stone/private-lawns-chords.htm
Привет, Гость.
Предлагаем пройти революционный курс по гитаре.
Подарок от PrimaNota.Ru, забирай!