PrimaNota.ru - самый крупный в мире бесплатный архив песенных текстов, аккордов, табулатур и нот


Angus & Julia Stone - Mango Tree Live - таба, видео

Регистрация Запомнить меня
Войти через:  Facebook Google Twitter Vk Yandex Mail.ru

Angus & Julia Stone - Mango Tree Live - таба, видео

Печатать
Просмотров: 221
Angus and Julia Stone do a lot of alternative intros at their live performances. 
This is an alternative intro to Mango Tree performed at a show in Sydney. Learned 
from ear so hopefully it's correct to those who have heard it. For those who 
haven't and need help with timing, it's available on iTunes.

For Jake Murphy...

Tuning: Standard, half a step down.


e|---------------------------------------------------------------|
B|---------------------------------------------------------------|
G|-----0-----0------0--------0------0------0------0--------------|
D|-0h2-----2------2--------4------4------4------4----------------|
A|---------------------------------------------------------------|
E|-3-----3------3--------3------3------3------3------------------|

MAIN PART:

e|---------------------------------------------------------------| \
B|---------------------------------------------------------------|  \
G|-------0h2p0-----4p0-----0-----------0h2p0-----4p0-----0-------|   |
D|-0h2-4---------0-------4-------0h2-4---------0-------4---------|   |
A|---------------------------------------------------------------|   |
E|-3-----------3-------3------(3)3-----------3-------3-----------|   |
                                                                     | x3
e|---------------------------------------------------------------|   |
B|---------------------------------------------------------------|   |
G|----------0------------0------------0h2p0-----4p0-----0--------|   |
D|----0h2-----4----0h2-----4----0h2-4---------0-------4----------|   |
A|----3---3-----(3)3---3-----(3)3-----------3-------3------------|  /
E|-(3)-----------------------------------------------------------| /


e|---------------------------------------------------------------| 
B|---------------------------------------------------------------|  
G|-------0h2p0-----4p0-----0-----------0h2p0-----4p0-----0-------|   
D|-0h2-4---------0-------4-------0h2-4---------0-------4---------|  
A|---------------------------------------------------------------|   
E|-3-----------3-------3------(3)3-----------3-------3-----------|  
                                                                     
e|---------------------------------------------------------------|   
B|---------------------------------------------------------------|   
G|----------0------------0------------0h2p0-----4p0-----0---0----|   
D|----0h2-----4----0h2-----4----0h2-4---------0-------4---4---4--|   
A|----3---3-----(3)3---3-----(3)3-----------3-------3------------|  
E|-(3)-----------------------------------------------------------| 

Then the original Mango Tree begins...

During the intro, Julia plays the trumpet which I have transcribed. It begins 
right at the end of the second repetition of the main part. To understand the 
timing, you'll definitely need to listen to the song.

e|---------------------------------------------------------------|
B|---------------------------------------------------------------|
G|---------------------------------------------------------------|
D|-7--9-9~-----9-7~---7-9~--4~-----------------------------------|
A|---------------------------------------------------------------|
E|---------------------------------------------------------------|

e|---------------------------------------------------------------|
B|---------------------------------------------------------------|
G|---------------------------------------------------------------|
D|-4-5-7~---9~------------9p7-9-7-9~-----------------------------|
A|---------------------------------------------------------------|
E|---------------------------------------------------------------|
Добавлено: 04.05.2012
Другие материалы по этой песне:
  • Аккорды и текст

Страница создана 04.05.2012
http://primanota.ru/angus-and-julia-stone/mango-tree-live-chords.htm
Привет, Гость.
Предлагаем пройти революционный курс по гитаре.
Подарок от PrimaNota.Ru, забирай!