PrimaNota.ru - самый крупный в мире бесплатный архив песенных текстов, аккордов, табулатур и нот


Angus & Julia Stone - Hollywood - таба, видео

Регистрация Запомнить меня
Войти через:  Facebook Google Twitter Vk Yandex Mail.ru

Angus & Julia Stone - Hollywood - таба, видео

Печатать
Просмотров: 207
Авторы: Angus Stone, Julia Stone

Intro and Verse

e|-----------------------------------------------------------------------------|
B|-----3--------3-------3------3------3-------3--------------------------------|
G|--------0-------0--------------0-------0-------------------------------------|
D|----------0-------0--------------2-------2-----------------------------------|
A|-------------------------3---------------------------------------------------|
E|-3---------------------------------------------------------------------------|

   G                      Cadd

Repeat this 3 times, then on the fourth time you play this, to finish the verse.

e|-----------------------------------------------------------------------------|
B|--------3--------3-------3-----3---------------------------------------------|
G|-----------0--------0----------0---------------------------------------------|
D|-------------0--------0--------2---------------------------------------------|
A|-------------------------------3---------------------------------------------|
E|---3-------------------------------------------------------------------------|

My first tab, tell me what you think!
Добавлено: 23.05.2012
Другие материалы по этой песне:
  • Аккорды и текст

Страница создана 23.05.2012
http://primanota.ru/angus-and-julia-stone/hollywood-chords.htm
Привет, Гость.
Предлагаем пройти революционный курс по гитаре.
Подарок от PrimaNota.Ru, забирай!