PrimaNota.ru - самый крупный в мире бесплатный архив песенных текстов, аккордов, табулатур и нот


Angus & Julia Stone - Heart Full Of Wine - текст песни, таба, видео

Регистрация Запомнить меня
Войти через:  Facebook Google Twitter Vk Yandex Mail.ru

Angus & Julia Stone - Heart Full Of Wine - текст песни, таба, видео

Печатать
Просмотров: 238
Авторы: Angus Stone, Julia Stone

Angus and Julia Stone
Heart Full of Wine
Heart Full of Wine E.P.

Capo 4
Intro/Verse                                   Pre-Chorus
e|-------------------------------------------|-------------------------| 
B|------1--------1--------1----------0h1-----|-------1--------0--------| 
G|----0---0----0---0----0---0-----0----------|-----0---0----0----------| 
D|--3--------2-------------------------------|-------------------------|
A|-------------------------------------------|-------------------------| 
E|--------------------3---------3------------|---3--------3------------| 

Chorus
e|---------------------------------------------------------------------| 
B|--0-1-3---1p0-1----1--------1--------1--------1----------------------| 
G|--0-0-0---0---0--0---0----0---0----0---0----0---0--------------------| 
D|------------------------3--------3--------3--------------------------| 
A|---------------------------------------------------------------------| 
E|---------------------------------------------------------------------| 

e|---------------------------------------------------------------------| 
B|--0-1-5---3s1-3----3--------3--------3--------3----------------------|
G|--0-0-0---0---0--0---0----0---0----0---0----0---0--------------------| 
D|---------------------------------------------------------------------| 
A|---------------------------------------------------------------------| 
E|------------------------3--------3--------3--------------------------| 

Outro
e|---------------------------------------------------------------------|
B|-----3------5------3------5---------1-0---0------1-0---0-------------| 
G|------0------0------0------0--------0-0---0------0-0---0-------------| 
D|----0--0---0--0---0--0---0--0----------------------------------------|
A|---2------2------2------2--------2-------------2---------------------| 
E|--3------3------3------3-------3--------3----3-------3---------------| 

Verse

Saw the washing on the line
As I lay on the floor
With a heart full of wine
With nothing left to pour, left to pour

Silver moon felling high
Through the window beneath the door
Her eyes are so kind
With nothing left to pour, left to pour

Chorus

You stepped into these days
You stepped into these days
You stepped into these days
You stepped into these days
And you went your way


Verse

We're sitting out on the couch
A movie plays without the sound
Words to say left in my mouth
With nothing left to pour, left to pour

Chorus

Silver moon feeling high
Through the window beneath the door
Her eyes are so kind
With nothing left to pour, left to pour
You stepped into these days
You stepped into these days
You stepped into these days
You stepped into these days
O you stepped into 
O you stepped into
One of these days

Outro
Добавлено: 24.06.2012
Другие материалы по этой песне:

Страница создана 12.05.2012
http://primanota.ru/angus-and-julia-stone/heart-full-of-wine-chords.htm
Привет, Гость.
Предлагаем пройти революционный курс по гитаре.
Подарок от PrimaNota.Ru, забирай!