PrimaNota.ru - самый крупный в мире бесплатный архив песенных текстов, аккордов, табулатур и нот


Angus & Julia Stone - Campfire - таба, видео

Регистрация Запомнить меня
Войти через:  Facebook Google Twitter Vk Yandex Mail.ru

Angus & Julia Stone - Campfire - таба, видео

Печатать
Просмотров: 199
Angus and Julia Stone - Campfire
Tuning: Standard
Tabbed By myself,(aaron_lehmann@hotmail.com)



-Intro Pt.1-

Guitar.1
  G                   C
|----3-----3-----3--|----3-----3-----3--|
|------3-----3------|------3-----3------|
|--------0----------|--------0----------|
|-------------------|-------------------|
|--------------2----|--3-----------3----|
|--3----------------|-------------------|

Guitar.2
|-------------------|----3~----3~-------|
|-------------------|----5~-------------|
|-------------------|-------------------|
|-------------------|-------------------|
|-------------------|-------------------|
|-------------------|-------------------|

Guitar.1
  G                   C
|----3-----3-----3--|----3-----3-----3--|
|------3-----3------|------3-----3------|
|--------0----------|--------0-----0----|
|-------------------|-------------------|
|--------------2----|--3----------------|
|--3----------------|-------------------|

Guitar.2
|----------3/5------|----------7~-------|
|----------5/7------|-------------------|
|-------------------|-------------------|
|-------------------|-------------------|
|-------------------|-------------------|
|-------------------|-------------------|

Guitar.1
  G                   C
|----3-----3-----3--|----3-----3-----3--|
|------3-----3------|------3-----3------|
|--------0----------|--------0----------|
|-------------------|-------------------|
|--------------2----|--3-----------3----|
|--3----------------|-------------------|

Guitar.2
|-----7---8----10---|-------8----7---5~-|
|---8---10--12------|-------10---8---7~-|
|-------------------|-------------------|
|-------------------|-------------------|
|-------------------|-------------------|
|-------------------|-------------------|

Guitar.1
  G                   C
|----3-----3-----3--|--3~---------------|
|------3-----3------|--3~---------------|
|--------0----------|--0~---------------|
|-------------------|--2~---------------|
|--------------2----|--3~---------------|
|--3----------------|-------------------|

Guitar.2
|--------3~---------|-------------------|
|--------5~---------|-------------------|
|-------------------|-------------------|
|-------------------|-------------------|
|-------------------|-------------------|
|-------------------|-------------------|



-Intro Pt.2-

Guitar.1
  G                   C
|-------------3-3-3-|------3------3-3-3-|
|------3------3-3-3-|------3------3-3-3-|
|-------------0-0-0-|------0------0-0-0-|
|---------0-0-0-0-0-|--2-2----2-2-2-2-2-|
|---------2-2-2-2-2-|--3-3----3-3-3-3-3-|
|---------3-3-3-3-3-|-------------------|

Guitar.1
  G                   C
|------3------3-3-3-|------3------3-3-3-|
|------3------3-3-3-|------3------3-3-3-|
|------0------0-0-0-|------0------0-0-0-|
|---------0-0-0-0-0-|--2-2----2-2-2-2-2-|
|--2-2----2-2-2-2-2-|--3-3----3-3-3-3-3-|
|--3-3----3-3-3-3-3-|-------------------|

Guitar.2
|-------------------|-------------------|
|-------3p0---------|-------------------|
|-----------2p0-----|-----0~----0----0--|
|---------------2p0-|--0h2---0h2--0h2---|
|-------------------|-------------------|
|-------------------|-------------------|

Guitar.1
  G                   C
|------3------3-3-3-|------3------3-3-3-|
|------3------3-3-3-|------3------3-3-3-|
|------0------0-0-0-|------0------0-0-0-|
|---------0-0-0-0-0-|--2-2----2-2-2-2-2-|
|--2-2----2-2-2-2-2-|--3-3----3-3-3-3-3-|
|--3-3----3-3-3-3-3-|-------------------|

Guitar.2
|-------------------|-------------------|
|-------------------|-------------------|
|----/4-0~-4h5p4p0--|----7-7h9-5h7-4h5~-|
|-------------------|-------------------|
|-------------------|-------------------|
|-------------------|-------------------|

Guitar.1
  G                   C
|------3------3-3-3-|------3------3-3-3-|
|------3------3-3-3-|------3------3-3-3-|
|------0------0-0-0-|------0------0-0-0-|
|---------0-0-0-0-0-|--2-2----2-2-2-2-2-|
|--2-2----2-2-2-2-2-|--3-3----3-3-3-3-3-|
|--3-3----3-3-3-3-3-|-------------------|

Guitar.2
|-------------------|-------------------|
|-------------------|-------------------|
|--4~---------------|--4h5~-------------|
|-------------------|-------------------|
|-------------------|-------------------|
|-------------------|-------------------|



-Chorus-

G                   C
Sitting 'round the campfire
G                  C
Waiting for my turn
G                   C
Sitting 'round the campfire 
G                  C
Waiting for my turn



-Verse.1-

Guitar.1
G                   C
Oh I've been waiting all week
       G                           C
Just to talk to Jimmy who plays the French horn
G                                  C
He's got skin that glows like the brass
              G                      C
And he's got a voice that sounds like Mr Mile's guitar


Guitar.2 (Played Quietly In Background)
  G                   C
|------------3/5~---|-----------|
|------------5/7~---|-----------|
|-------------------|-----------|
|-------------------|-----------|
|-------------------|-----------|
|-------------------|-----------|

  G                   C
|---------------|----------8~---|
|----12p10(X6)--|--12p10--10~---|
|---------------|---------------|
|---------------|---------------|
|---------------|---------------|
|---------------|---------------|

  G                C
|------7/8-7-5--|--3~-----------|
|----------8-7--|--5~-----------|
|---------------|---------------|
|---------------|---------------|
|---------------|---------------|
|---------------|---------------|



-Verse.2-

G                             C
Well Jimmy burnt his hand on a hot coal
G                           C
Then Mr Miles said it's time to sing along
G                               C
Late night cookies and cream for all of you
G                                     C
Then we'll sit around and watch the fire burn



-Chorus-

G                   C
Sitting 'round the campfire
G                  C
Waiting for my turn
G                   C
Sitting 'round the campfire 
G                  C
Waiting for my turn



-Other Part-

Both Guitars
|----------3--3--|---------3--3--|
|---3--3---3--3--|---3--3--3--3--|
|---0--0---------|---0--0--------|
|----------------|--------0--0---|
|---------3--3---|---------------|
|--3--3----------|--3--3---------|X4


In the jungle, the mighty jungle, the lion sleeps tonight (x2)
'Cause in the jungle, the mighty jungle, the lion sleeps tonight (x2)

(then it swaps to just G and C) 

Both Guitars
|----------3--3--|---------3--3--|
|---3--3---3--3--|---3--3--3--3--|
|---0--0---------|---0--0--------|
|----------------|---------------|
|---------3--3---|--------3--3---|
|--3--3----------|--3--3---------|X12


Kumbaya 
Kumbaya my Lord
('Cause in the jungle the mighty jungle the lion sleeps tonight) (x2)


(Something About McTavish?)

Ohh oohhh oumbaway (x2)

Chips and hot dogs 
Don't mean a thing
When I've got you babe
To wear my ring

McDonalds, McDonalds
Kentucky Fried Chiken and a Pizza Hut (x2)
 

-Break-

Guitar.1
  G                   C
|------3------3-3-3-|------3------3-3-3-|
|------3------3-3-3-|------3------3-3-3-|
|------0------0-0-0-|------0------0-0-0-|
|---------0-0-0-0-0-|--2-2----2-2-2-2-2-|
|--2-2----2-2-2-2-2-|--3-3----3-3-3-3-3-|
|--3-3----3-3-3-3-3-|-------------------|

I tabbed the harmonica out below for anyone who is curious?

Guitar.2
|--7------8--7--5--3--7-----8-10--|



-Outro- (Strum Once)

G                   C
Sitting 'round the campfire
G                  C
Waiting for my turn
G                   C
Sitting 'round the campfire 
G                  C
Waiting for my turn

(Lyrics thanx to Lyricsmania.com)
Enjoy...
Добавлено: 19.06.2012
Другие материалы по этой песне:
  • Аккорды и текст

Страница создана 19.06.2012
http://primanota.ru/angus-and-julia-stone/campfire-chords.htm
Привет, Гость.
Предлагаем пройти революционный курс по гитаре.
Подарок от PrimaNota.Ru, забирай!