PrimaNota.ru - самый крупный в мире бесплатный архив песенных текстов, аккордов, табулатур и нот


Angus & Julia Stone - A Book Like This - текст песни, таба, видео

Регистрация Запомнить меня
Войти через:  Facebook Google Twitter Vk Yandex Mail.ru

Angus & Julia Stone - A Book Like This - текст песни, таба, видео

Печатать
Просмотров: 286
Song:   A Book Like This
Artist: Angus And Julia Stone
Album:  A Book Like This


Tuning: Standard
Capo 3

Intro: Palm Muted
e|------------------------------------------------------|
B|-------1-0----------1-0---------1-0---------1-0-------|
G|---0-------0----0-------0---0-------0---0-------0-----|
D|-----2------------2-----------3-----------3-----------|
A|-0------------0---------------------------------------|
E|--------------------------1-----------1---------------|

e|------------------------------------------------------|
B|-------1-0----------1-0---------1-0----------1-0------|
G|---0-------0----0-------0---0-------0----0-------0----|
D|-----0------------0-----------2------------2----------|
A|--------------------------0------------0--------------|
E|-3------------3---------------------------------------|

e|------------------------------------------------------|
B|-------1-0----------1-0---------1-0---------1-0-------|
G|---0-------0----0-------0---0-------0---0-------0-----|
D|-----2------------2-----------3-----------3-----------|
A|-0------------0---------------------------------------|
E|--------------------------1-----------1---------------|

e|------------------------------------------------------|
B|-------1-0----------1-0---------1-0----------3-1-0----|
G|---0-------0----0-------0---0-------0----0------------|
D|-----0------------0-----------2------------2----------|
A|--------------------------0------------0--------------|
E|-3------------3---------------------------------------|

Verse 1: Palm Muted
e|------------------------------------------------------|
B|-------1-0----------1-0---------1-0---------1-0-------|
G|---0-------0----0-------0---0-------0---0-------0-----|
D|-----2------------2-----------3-----------3-----------|
A|-0------------0---------------------------------------|
E|--------------------------1-----------1---------------|

e|------------------------------------------------------|
B|-------1-0----------1-0---------1-0----------1-0------|
G|---0-------0----0-------0---0-------0----0-------0----|
D|-----0------------0-----------2------------2----------|
A|--------------------------0------------0--------------|         X4
E|-3------------3---------------------------------------|

Chorus:    
e|------------------------------------------------------|
B|-------1-0----------1-0---------1-0---------1-0-------|
G|---0-------0----0-------0---0-------0---0-------0-----|
D|-----2------------2-----------3-----------3-----------|
A|-0------------0---------------------------------------|
E|--------------------------1-----------1---------------|

e|------------------------------------------------------|
B|-------1-0----------1-0---------1-0----------1-0------|
G|---0-------0----0-------0---0-------0----0-------0----|
D|-----0------------0-----------2------------2----------| 
A|--------------------------0------------0--------------|      
E|-3------------3---------------------------------------|

e|------------------------------------------------------|
B|-------1-0----------1-0---------1-0---------1-0-------|
G|---0-------0----0-------0---0-------0---0-------0-----|
D|-----2------------2-----------3-----------3-----------|
A|-0------------0---------------------------------------|
E|--------------------------1-----------1---------------|

e|------------------------------------------------------|
B|-------1-0----------1-0---------1-0----------1-3-1-0--|
G|---0-------0----0-------0---0-------0----0------------|
D|-----0------------0-----------2------------2----------| 
A|--------------------------0------------0--------------|      
E|-3------------3---------------------------------------|

Verse 2: Palm Muted
e|------------------------------------------------------|
B|-------1-0----------1-0---------1-0---------1-0-------|
G|---0-------0----0-------0---0-------0---0-------0-----|
D|-----2------------2-----------3-----------3-----------|
A|-0------------0---------------------------------------|
E|--------------------------1-----------1---------------|

e|------------------------------------------------------|
B|-------1-0----------1-0---------1-0----------1-0------|
G|---0-------0----0-------0---0-------0----0-------0----|
D|-----0------------0-----------2------------2----------|
A|--------------------------0------------0--------------|         X4
E|-3------------3---------------------------------------|

Chorus: 
e|------------------------------------------------------|
B|-------1-0----------1-0---------1-0---------1-0-------|
G|---0-------0----0-------0---0-------0---0-------0-----|
D|-----2------------2-----------3-----------3-----------|
A|-0------------0---------------------------------------|
E|--------------------------1-----------1---------------|

e|------------------------------------------------------|
B|-------1-0----------1-0---------1-0----------1-0------|
G|---0-------0----0-------0---0-------0----0-------0----|
D|-----0------------0-----------2------------2----------| 
A|--------------------------0------------0--------------|         X2      
E|-3------------3---------------------------------------|
Chorus continues another X2 during solo.

Solo starts around 2:37
e|-------------------------------------------------------------|
B|--8-8-8-8h10--8-10-6-8-5-6-3-5-1-1/3-0-----0-1p0~------0-1~--|
G|----------------------------------------0h2---------0h2------|
D|-------------------------------------------------------------|
A|-------------------------------------------------------------|
E|-------------------------------------------------------------|

e|---------------------------------------------------|
B|--8-10-6-8---6-3-5-3-1-1/3-0-----0-1p0~------0-1~--|
G|------------------------------0h2---------0h2------|
D|---------------------------------------------------|
A|---------------------------------------------------|
E|---------------------------------------------------|

Verse 3: Palm Muted
e|------------------------------------------------------|
B|-------1-0----------1-0---------1-0---------1-0-------|
G|---0-------0----0-------0---0-------0---0-------0-----|
D|-----2------------2-----------3-----------3-----------|
A|-0------------0---------------------------------------|
E|--------------------------1-----------1---------------|

e|------------------------------------------------------|
B|-------1-0----------1-0---------1-0----------1-0------|
G|---0-------0----0-------0---0-------0----0-------0----|
D|-----0------------0-----------2------------2----------|
A|--------------------------0------------0--------------|         X2
E|-3------------3---------------------------------------|

Chorus:    
e|------------------------------------------------------|
B|-------1-0----------1-0---------1-0---------1-0-------|
G|---0-------0----0-------0---0-------0---0-------0-----|
D|-----2------------2-----------3-----------3-----------|
A|-0------------0---------------------------------------|
E|--------------------------1-----------1---------------|

e|------------------------------------------------------|
B|-------1-0----------1-0---------1-0----------1-0------|
G|---0-------0----0-------0---0-------0----0-------0----|
D|-----0------------0-----------2------------2----------| 
A|--------------------------0------------0--------------|      
E|-3------------3---------------------------------------|

e|------------------------------------------------------|
B|-------1-0----------1-0---------1-0---------1-0-------|
G|---0-------0----0-------0---0-------0---0-------0-----|
D|-----2------------2-----------3-----------3-----------|
A|-0------------0---------------------------------------|
E|--------------------------1-----------1---------------|

e|---------------------------------|
B|-------1-0----------1-0----------|
G|---0-------0----0-------0--------|
D|-----0------------0--------------| 
A|--------------------------0~-----|      
E|-3------------3------------------|
Добавлено: 18.06.2012
Другие материалы по этой песне:
  • Аккорды и текст

Страница создана 18.06.2012
http://primanota.ru/angus-and-julia-stone/a-book-like-this-chords.htm
Привет, Гость.
Предлагаем пройти революционный курс по гитаре.
Подарок от PrimaNota.Ru, забирай!