PrimaNota.ru - самый крупный в мире бесплатный архив песенных текстов, аккордов, табулатур и нот


Angry Samoans - The Todd Killings - аккорды и текст, таба, видео

Регистрация Запомнить меня
Войти через:  Facebook Google Twitter Vk Yandex Mail.ru

Angry Samoans - The Todd Killings - аккорды и текст, таба, видео

Печатать
Просмотров: 131
The Todd Killings
Angry Samoans
Band: Angry Samoans
Song Title: Todd Killings
Tabbed by: Travis Simmons

*This file was tabbed by Travis Simmons and not taken from a website or a 
tab*

This song is fairly simple.

e----------------------------
B----------------------------
G--9-9-----9---7-7-----7-----  x1
D------9-9---9-----7-7---7---
A----------------------------
E----------------------------

e----------------------------------
B----------------------------------
G--9-9-------9------7-7-------7----
D--9-9--9-9--9--9---7-7--7-7--7--7-  x2
A--7-7--9-9--7--9---5-5--7-7--5--7-
E-------7-7-----7--------5-5-----5-

e------------------------------------------------------------------------
B------------------------------------------------------------------------
G-----------5-5-5-5-----------5-5-5-5-----------9-9-9-9-----------9-9-9-9
D--2-2-2-2--5-5-5-5--2-2-2-2--5-5-5-5--5-5-5-5--9-9-9-9--5-5-5-5--9-9-9-9
A--2-2-2-2--3-3-3-3--2-2-2-2--3-3-3-3--5-5-5-5--7-7-7-7--5-5-5-5--7-7-7-7
E--0-0-0-0-----------0-0-0-0-----------3-3-3-3-----------3-3-3-3---------

(note: that last tab may be incorrect. but the rest is correct)
     
Добавлено: 24.12.2013
Другие материалы по этой песне:
  • Аккорды и текст

Страница создана 06.07.2012
http://primanota.ru/angry-samoans/the-todd-killings-chords.htm
Привет, Гость.
Предлагаем пройти революционный курс по гитаре.
Подарок от PrimaNota.Ru, забирай!