PrimaNota.ru - самый крупный в мире бесплатный архив песенных текстов, аккордов, табулатур и нот


Angry Nonez - Lonley Pony - бас-таба, видео

Регистрация Запомнить меня
Войти через:  Facebook Google Twitter Vk Yandex Mail.ru

Angry Nonez - Lonley Pony - бас-таба, видео

Печатать
Просмотров: 82
angry nonez - lonley pony tab 

band - angry nonez
song - lonley pony
tab - bass
album - nonie and i know it
tunning - drop B



Intro
- ----------------------|
- ----------------------|
- ----------------------|
- -2-2-2----------------|

(drum fill)


Verse
- ---------------------------------|
- ---------------------------------|
- ---------------------------------|
- -2-2-2-222-2-222-2-33------------|


- ---------------|
- ---------------|
- ---------------|
- -0~------0~----|



- ---------------------------------|
- ---------------------------------|
- ---------------------------------|
- -1-3-1-3-1-3-0000-1-3-1-3-1-3-0--|
Добавлено: 28.10.2013
Вам также может быть интересно:
Другие материалы по этой песне:
  • Аккорды и текст

Страница создана 28.10.2013
http://primanota.ru/angry-nonez/lonley-pony-chords.htm
Привет, Гость.
Предлагаем пройти революционный курс по гитаре.
Подарок от PrimaNota.Ru, забирай!