PrimaNota.ru - самый крупный в мире бесплатный архив песенных текстов, аккордов, табулатур и нот


Angry Angles - You Call It Love - таба, видео

Регистрация Запомнить меня
Войти через:  Facebook Google Twitter Vk Yandex Mail.ru

Angry Angles - You Call It Love - таба, видео

Печатать
Просмотров: 67
-------------------------------------------------------------------------------
                             You Call It Love - Angry Angles
-------------------------------------------------------------------------------
Tabbed by:DandyBoy
E-mail:N/A

Tuning:E Standard


e|---------------------------------------------------------------------------|
B|---------------------------------------------------------------------------|
G|9-9-9-9-9-----9-9-9-9-9--8-------------------------------------8-----------|
D|9-9-9-9-9--9--9-9-9-9-9--8--11-11-11-11-11--9--11-11-11-11-11--8-----------|
A|7-7-7-7-7--9--7-7-7-7-7--6--11-11-11-11-11--9--11-11-11-11-11--6-----------|
E|-----------7----------------9--9--9--9--9---7--9--9--9--9--9---------------|x4(Chorus)

e|----7-----7-----7-----7-----7-7------5-----5-----5-----5-----5-5-----------|
B|----7-----7-----7-----7-----7-7------5-----5-----5-----5-----5-5-----------|
G|----8-----8-----8-----8-----8-8------6-----6-----6-----6-----6-6-----------|
D|----9-----9-----9-----9-----9-9------7-----7-----7-----7-----7-7-----------|
A|----9-----9-----9-----9-----9-9------7-----7-----7-----7-----7-7-----------|
E|7-7-7-7-7-7-7-7-7-7-7-7-7-7-7-7--5-5-5-5-5-5-5-5-5-5-5-5-5-5-5-5-----------|x2(Verse)




************************************

| /   slide up
| \   slide down
| h   hammer-on
| p   pull-off
| ~   vibrato
| +   harmonic
| x   Mute note
| b   Bend
| pb  Pre-bend
| br  Bend release
| pbr Pre-bend release
| brb Bend release bend

************************************
Добавлено: 16.11.2015
Другие материалы по этой песне:
  • Аккорды и текст

Страница создана 16.11.2015
http://primanota.ru/angry-angles/you-call-it-love-chords.htm
Привет, Гость.
Предлагаем пройти революционный курс по гитаре.
Подарок от PrimaNota.Ru, забирай!