PrimaNota.ru - самый крупный в мире бесплатный архив песенных текстов, аккордов, табулатур и нот


Angry Amputees - She Said - текст песни, таба, бас-таба, видео

Регистрация Запомнить меня
Войти через:  Facebook Google Twitter Vk Yandex Mail.ru

Angry Amputees - She Said - текст песни, таба, бас-таба, видео

Печатать
Просмотров: 171
http://www.theamputees.com/ - link to website

-------------------------------------------------------------------------------
                           She Said - Angry Amputees
-------------------------------------------------------------------------------
Tabbed by: Bloodred16
Email: happytreefriends_firstblood@hotmail.com

Tuning: Standard (EADGBe)

Really easy song to play, i tabbed it in what 15mins at 3 in the morning one
saturday night!  still i may have made an easy tab look complicated, so i 
hope you can work it all out from what i've put down!

Intro - (Gtr. 1)
e|---------------------------------------------------------------------------|
B|---------------------------------------------------------------------------|
G|---------------------------------------------------------------------------|
D|14\7--------14\7-----------------------------------------------------------|
A|14\7--------14\7-----------------------------------------------------------|
E|12\5--------12\5-----------------------------------------------------------|
     |-------    |-------

Verse
Rhy. Fig. 1 - (Gtr. 1)
e|---------------------------------------------------------------------------|
B|---------------------------------------------------------------------------|
G|----------------7--7--7--7-7-7---------------------------------------------|
D|4--4--4--4-4-4--7--7--7--7-7-7--7--7--7--7-7-7--7--7--7--7-7-7-------------|
A|4--4--4--4-4-4--5--5--5--5-5-5--7--7--7--7-7-7--7--7--7--7-7-7-------------|
E|2--2--2--2-2-2------------------5--5--5--5-5-5--5--5--5--5-5-5-------------|
        |--             |--             |--             |--
Rhy. Fig. 2 - (Gtr. 1) {i can't work out the rythem! this is what i think it is
                        but i know it's the right chords PM!!!}
e|---------------------------------------------------------------------------|
B|---------------------------------------------------------------------------|
G|---------------------------------------------------------------------------|
D|---------------------------------------------------------------------------|
A|7--777--7--7--777----------------------------------------------------------|
E|5--555--5--5--555----------------------------------------------------------|
  PM--------------|

over Rhy. Fig. 2 Gtr. 2 plays this {I'm not sure about those harmonics but they
                                    sound good and fit with the song}
Rhy. Fill. 1
e|---------------------------------------------------------------------------|
B|---------------------------------------------------------------------------|
G|---------------7-7-7-------------------------------------------------------|
D|7--------------------------------------------------------------------------|
A|7--------------------------------------------------------------------------|
E|5-----------------------(x2)-----------------------------------------------|
  |--------------------- 
                 + + +

Once all that has been played Gtr. 1 plays Rhy. Fig. 1

Chorus - Rhy. Fig. 1 - (Gtr. 1), then 2nd time:
e|---------------------------------------------------------------------------|
B|---------------------------------------------------------------------------|
G|----------------7--7--7--7-7-7---------------------------------------------|
D|4--4--4--4-4-4--7--7--7--7-7-7--7--7--7--7-7-7--7--------------------------|
A|4--4--4--4-4-4--5--5--5--5-5-5--7--7--7--7-7-7--7--------------------------|
E|2--2--2--2-2-2------------------5--5--5--5-5-5--5--------------------------|
        |--             |--             |--       |---------------

Riff. A - (Gtr. 2)            end Riff A¬    *-------Fill A--------¬
e|---------------------------------------------------------------------------|
B|---------------------------------------------------------------------------|
G|2-1-2-421-2-1-2-421-2-1-2-421-2-4-6-421----2-1-2-421-(x3)--2~~~~~~---------|
D|---------------------------------------------------------------------------|
A|---------------------------------------------------------------------------|
E|---------------------------------------------------------------------------|

Verse 2 - Rhy. Fill. 1 (Gt.2)
        - Rhy. Fig. 1 (x2) (Gt.1)(this is played after Rhy. Fill. 1)

Chorus - Rhy. Fig. 1 (Gt.1)
       - Riff A followed by Fill A (Gt.2)

then after Rhy. Fig. 1 in the 2nd chorus it goes
e|---------------------------------------------------------------------------|
B|---------------------------------------------------------------------------|
G|----------------7--7--7----------------------------------------------------|
D|4--4--4--4-4-4--7--7--7----------------------------------------------------|
A|4--4--4--4-4-4--5--5--5----------------------------------------------------|
E|2--2--2--2-2-2-------------------------------------------------------------|
        |--             |-------------

last bit in the 2nd chorus is different than the first! Guitar 1 plays this:
e|---------------------------------------------------------------------------|
B|---------------------------------------------------------------------------|
G|----------------------7--7-7-7--------ends on------------------------------|
D|7--7--7--7-7-7--4--4--7--7-7-7-------------------7-7-----------------------|
A|7--7--7--7-7-7--4--4--5--5-5-5-------------------7-7-----------------------|
E|5--5--5--5-5-5--2--2-----------(x4)--------------5-5-----------------------|
        |--             |--
Gutiar 2 plays this:
e|---------------------------------------------------------------------------|
B|---------------------------------------------------------------------------|
G|2-1-2-421-2-4-6-421-(x3)--then play-2bbbbbbbb------------------------------|
D|---------------------------------------------------------------------------|
A|---------------------------------------------------------------------------|
E|---------------------------------------------------------------------------|

| /  slide up
| \  slide down
| h  hammer-on
| p  pull-off
| ~  vibrato
| +  harmonic
| b  bend note
| |-- hold note
| PM--| Palm Muted
===============================================================================
Добавлено: 10.06.2012
Другие материалы по этой песне:

Страница создана 26.03.2012
http://primanota.ru/angry-amputees/she-said-chords.htm
Привет, Гость.
Предлагаем пройти революционный курс по гитаре.
Подарок от PrimaNota.Ru, забирай!