PrimaNota.ru - самый крупный в мире бесплатный архив песенных текстов, аккордов, табулатур и нот


Angry Amputees - Psycho Bitch - текст песни, бас-таба, видео

Регистрация Запомнить меня
Войти через:  Facebook Google Twitter Vk Yandex Mail.ru

Angry Amputees - Psycho Bitch - текст песни, бас-таба, видео

Печатать
Просмотров: 188
Уроки эстрадного вокала в Санкт-Петербурге
ANGRY AMPUTEES - PSYCHO BITCH
SLUT BOMB: 2003
TABBED BY: JOSH HUGHFF
TUNING: STANDARD E.A.D.G


CHORUS: X2

G:|----------------------------------------------------------------------|
D:|----------------------------------------------------------------------|
A:|---------3-333333----------------------------3-333333-----------------|
E:|5-555555----------1-111111-3-333333-5-555555----------1-111111-3--3-3-|

VERSE: X4

G:|------------------------------------|
D:|---------3-333333-------------------|
A:|5-555555----------1-111111-3-333333-|
E:|------------------------------------|

CHORUS: X2

G:|----------------------------------------------------------------------|
D:|----------------------------------------------------------------------|
A:|---------3-333333----------------------------3-333333-----------------|
E:|5-555555----------1-111111-3-333333-5-555555----------1-111111-3--3-3-|


VERSE: X4

G:|------------------------------------|
D:|---------3-333333-------------------|
A:|5-555555----------1-111111-3-333333-|
E:|------------------------------------|

CHORUS: X2

G:|----------------------------------------------------------------------|
D:|----------------------------------------------------------------------|
A:|---------3-333333----------------------------3-333333-----------------|
E:|5-555555----------1-111111-3-333333-5-555555----------1-111111-3--3-3-|

BRIDGE: X3

G:|------------------------------------------------------|
D:|------------------------------------------------------|
A:|------------------3-333333-3-333333-------------------|
E:|1-1--1---3-3--3---------------------5-555555-5-555555-|

4TH TIME PLAY THIS

G:|----------------------------------|
D:|----------------------------------|
A:|--------------------------------3-|
E:|1-1-1-1-1-1-1-1-3-3-3-3-3-3-3-3---|

CHORUS: X2

G:|----------------------------------------------------------------------|
D:|----------------------------------------------------------------------|
A:|---------3-333333----------------------------3-333333-----------------|
E:|5-555555----------1-111111-3-333333-5-555555----------1-111111-3--3-3-|

ENDING PT 1: X3
                                    
G:|------------------------------------|
D:|------------------------------------|
A:|---------3-333333-------------------|
E:|5-555555----------1-111111-3-333333-|

4TH TIME

G:|------------------------------------|
D:|------------------------------------|
A:|---------3-333333-------------------|
E:|5-555555----------1-111111-3-3--3---|

ENDING PT 2:

G:|-----------------------------|
D:|-----------------------------|
A:|------------------3--------3-|
E:|1-1--1---3-3----3------------|

THATS IT. 

RED ARMY PUNX

http://www.myspace.com/redarmyofficial
Добавлено: 26.05.2012
Вам также может быть интересно:
Другие материалы по этой песне:
  • Аккорды и текст

Страница создана 26.05.2012
http://primanota.ru/angry-amputees/psycho-bitch-chords.htm
Привет, Гость.
Предлагаем пройти революционный курс по гитаре.
Подарок от PrimaNota.Ru, забирай!