PrimaNota.ru - самый крупный в мире бесплатный архив песенных текстов, аккордов, табулатур и нот


Angra - Lasting Child - текст песни, таба, видео

Регистрация Запомнить меня
Войти через:  Facebook Google Twitter Vk Yandex Mail.ru

Angra - Lasting Child - текст песни, таба, видео

Печатать
Просмотров: 56
Angra - Lasting Child

           C#m            D#  G#
Years gone by - Awake again
              C#m                   C#
In a glowing star - That shines so far
          E                F#   B
Lasting child - Remains inside
          E        A  G# F# E
Playing around - A fu_tu_re denied

E    F# G# A   C#/5+ B  E*              B*
High ov_er_head_______, dusk is insight

Fumbling the mist
                 G#
Lingering around_____

C#m  B

A
Blow,
B  A      G#
Ca_rrying winds
A    G# F#m
Take me high
G#    D#    C#    B
Where I  can  see
    F#m     G#
The hidden lights
     A            C
That blink far beyond...

(C#m D# F#m G#)
(C#m G# A E)
(F#m G# C#m D#)
(Bm C# F#m G#)
(A Bb B E)

C#5 B5

A
Blow,
B  A      G#
Ca_rrying winds
A    G# F#m
Take me high
G#    D#    C#    B
Where I  can  see
    F#m     G#
The hidden lights
     A            C
That blink far beyond...

C#5 B5

E
And then
  B   A    G#
A pain_ted dream
A  G#         F#m
Co_lours that melt
G#   D#       C#
Inside slender frames
F#m         G#
There I'll stand
A
There I belong...

II - Renaissance


E|----------------------|-------------------------|
B|--6------6--6---------|--4-----4-6--------------|
G|-----6-8-------8--5-6-|----5-6-----6-3--8-6-5---|
D|----------------------|-----------------------8-|
A|----------------------|-------------------------|
E|--6------6--5-----5---|--4-----------3----------|


------------------------|----------------------|----------------------|
------------1-----1-2-1-|----------------------|--6------6--6---------|
--3----1-3----2-3-------|--3-------------------|-----6-8-------8--5-6-|
-----4------------------|-----3-4-3-----3-4-3--|----------------------|
------------------------|--1-------------------|----------------------|
--2---------1-----------|------------1---------|--6------6--5-----5---|


-------------------------|------------------------|----------------------|
--4-----4-6--------------|------------1-----1-2-1-|----------------------|
----5-6-----6-3--8-6-5---|--3----1-3----2-3-------|--3-------------------|
-----------------------8-|-----4------------------|-----3-4-3-----3-4-3--|
-------------------------|------------------------|--1-------------------|
--4-----------3----------|--2---------1-----------|------------1---------|


--------------------4-----|--------------------------|
--------6---------1---1---|--------6-----------7-----|
------6---6-----1-------1-|------6---6-------6---6---|
----6-------6-------------|----4-------4---4-------4-|
--4-----------3-----------|--2-----------------------|
--------------------------|--------------6-----------|


--------0-----------------|------------------------|--------------------7-----|
------2---2---------5-----|------------------------|--------9---------4---4---|
----2-------2-----4---4---|------3---3------5---5--|------9---9-----4-------4-|
----------------6-------6-|------4---4------6---6--|----9-------9-------------|
--0-----------------------|----4---4------6---6----|--7-----------6-----------|
--------------4-----------|--2----------4----------|--------------------------|


---------2---------1-----|--------------------------|-------------------------|
-----------------2---2---|--------6-----------4-----|------3---3------3---3---|
-------3---3---3-------3-|------6---6-------5---5---|------3---3------3---3---|
-----4-------------------|----6-------6---6-------6-|----3---3------3---3---3-|
---4---------1-----------|--4-----------------------|--1----------1-----------|
-------------------------|--------------4-----------|-------------------------|


--------------------4-----|--------------------------|
--------6-----------------|--------6-----------7-----|
------6---6-------5---5---|------6---6-------6---6---|
----6-------6---6-------6-|----4-------4---4-------4-|
--4-----------3-----------|--2-----------------------|
--------------------------|--------------6-----------|


--------0-----------------|------------------------|--------------------7-----|
------2---2---------5-----|------------------------|--------9---------4---4---|
----2-------2-----4---4---|------3---3------5---5--|------9---9-----4-------4-|
----------------6-------6-|------4---4------6---6--|----9-------9-------------|
--0-----------------------|----4---4------6---6----|--7-----------6-----------|
--------------4-----------|--2----------4----------|--------------------------|


---------2---------1-----|--------------------------|-------------------------|
-----------------2---2---|--------6-----------4-----|------3---3------3---3---|
-------3---3---3-------3-|------6---6-------5---5---|------3---3------3---3---|
-----4-------------------|----6-------6---6-------6-|----3---3------3---3---3-|
---4---------1-----------|--4-----------------------|--1----------1-----------|
-------------------------|--------------4-----------|-------------------------|


--------------------4-----|--------------------------|
--------6-----------------|--------6-----------7-----|
------6---6-------5---5---|------6---6-------6---6---|
----6-------6---6-------6-|----4-------4---4-------4-|
--4-----------3-----------|--2-----------------------|
--------------------------|--------------6-----------|


--------0-----------------|------------------------|--------4-----------7-----|
------2---2---------5-----|------------------------|------5---5-------4---4---|
----2-------2-----4---4---|------3---3------5---5--|----4-------4---4-------4-|
----------------6-------6-|------4---4------6---6--|--2-----------------------|
--0-----------------------|----4---4------6---6----|--------------6-----------|
--------------4-----------|--2----------4----------|--------------------------|


---------2---------1-----|--------------------------|-------------------------|
-----------------2---2---|--------6-----------4-----|------3---3------3---3---|
-------3---3---3-------3-|------6---6-------5---5---|------3---3------3---3---|
-----4-------------------|----6-------6---6-------6-|----3---3------3---3---3-|
---4---------1-----------|--4-----------------------|--1----------1-----------|
-------------------------|--------------4-----------|-------------------------|


--------------------4-----|--------------------------|
--------6-----------------|--------6-----------7-----|
------6---6-------5---5---|------6---6-------6---6---|
----6-------6---6-------6-|----4-------4---4-------4-|
--4-----------3-----------|--2-----------------------|
--------------------------|--------------6-----------|


--------0-----------------|------------------------|--------4-----------7-----|
------2---2---------5-----|------------------------|------5---5-------4---4---|
----2-------2-----4---4---|------3---3------5---5--|----4-------4---4-------4-|
----------------6-------6-|------4---4------6---6--|--2-----------------------|
--0-----------------------|----4---4------6---6----|--------------6-----------|
--------------4-----------|--2----------4----------|--------------------------|


---------2---------1-----|--------------------------|-------------------------|
-----------------2---2---|--------6-----------4-----|------3---3------3---3---|
-------3---3---3-------3-|------6---6-------5---5---|------3---3------3---3---|
-----4-------------------|----6-------6---6-------6-|----3---3------3---3---3-|
---4---------1-----------|--4-----------------------|--1----------1-----------|
-------------------------|--------------4-----------|-------------------------|


--------1-----------4-----|--------1-----------2-----|
------2---2-------1---1---|------2---2-------2---2---|
----1-------1---1-------1-|--------------------------|
--------------------------|----4-------4---4-------4-|
--4-----------3-----------|--2-----------1-----------|
--------------------------|--------------------------|


--------0-----------0-----|------------------------|------0-4-0---------7-----|
------2---2-------0---0---|-----------------1---1--|----0-------0---0-4---4---|
----2-------2---1-------1-|------3---3------1---1--|------------------------4-|
--------------------------|------4---4----1---1----|--2-----------1-----------|
--0-----------------------|----4---4---------------|--------------------------|
--------------4-----------|--2----------4----------|--------------------------|


---------2---------1-----|--------1-----------------|-------------------------|
-----------------2---2---|------2---2-------1-4-1---|------3---3------3---3---|
-------3---3---3-------3-|----1-------1---1-------1-|------3---3------3---3---|
-----4-------------------|--------------------------|----3---3------3---3---3-|
---4---------1-----------|--4-----------------------|--1----------1-----------|
-------------------------|--------------4-----------|-------------------------|


--------1-----------4-----|--------1-----------2-----|
------2---2-------1---1---|------2---2-------2---2---|
----1-------1---1-------1-|--------------------------|
--------------------------|----4-------4---4-------4-|
--4-----------3-----------|--2-----------1-----------|
--------------------------|--------------------------|


--------0-----------0-----|------------------------|------0-4-0---------7-----|
------2---2-------0---0---|-----------------1---1--|----0-------0---0-4---4---|
----2-------2---1-------1-|------3---3------1---1--|------------------------4-|
--------------------------|------4---4----1---1----|--2-----------1-----------|
--0-----------------------|----4---4---------------|--------------------------|
--------------4-----------|--2----------4----------|--------------------------|


---------2---------1-----|--------1-----------------|-------------------------|
-----------------2---2---|------2---2-------1-4-1---|------3---3------3---3---|
-------3---3---3-------3-|----1-------1---1-------1-|------3---3------3---3---|
-----4-------------------|--------------------------|----3---3------3---3---3-|
---4---------1-----------|--4-----------------------|--1----------1-----------|
-------------------------|--------------4-----------|-------------------------|


--------1-----------4-----|--------1-----------2-----|
------2---2-------1---1---|------2---2-------2---2---|
----1-------1---1-------1-|--------------------------|
--------------------------|----4-------4---4-------4-|
--4-----------3-----------|--2-----------1-----------|
--------------------------|--------------------------|


--------0-----------0-----|------------------------|------0-4-0---------7-----|
------2---2-------0---0---|-----------------1---1--|----0-------0---0-4---4---|
----2-------2---1-------1-|------3---3------1---1--|------------------------4-|
--------------------------|------4---4----1---1----|--2-----------1-----------|
--0-----------------------|----4---4---------------|--------------------------|
--------------4-----------|--2----------4----------|--------------------------|


---------2---------1-----|--------1-----------------|-------------------------|
-----------------2---2---|------2---2-------1-4-1---|------3---3------3---3---|
-------3---3---3-------3-|----1-------1---1-------1-|------3---3------3---3---|
-----4-------------------|--------------------------|----3---3------3---3---3-|
---4---------1-----------|--4-----------------------|--1----------1-----------|
-------------------------|--------------4-----------|-------------------------|


--------1-----------4-----|--------1-----------2-----|
------2---2-------1---1---|------2---2-------2---2---|
----1-------1---1-------1-|--------------------------|
--------------------------|----4-------4---4-------4-|
--4-----------3-----------|--2-----------1-----------|
--------------------------|--------------------------|


--------0-----------0-----|------------------------|------0-4-0---------7-----|
------2---2-------0---0---|-----------------1---1--|----0-------0---0-4---4---|
----2-------2---1-------1-|------3---3------1---1--|------------------------4-|
--------------------------|------4---4----1---1----|--2-----------1-----------|
--0-----------------------|----4---4---------------|--------------------------|
--------------4-----------|--2----------4----------|--------------------------|


---------2---------1-----|--------1-----------------|-------------------------|
-----------------2---2---|------2---2-------1-4-1---|------3---3------3---3---|
-------3---3---3-------3-|----1-------1---1-------1-|------3---3------3---3---|
-----4-------------------|--------------------------|----3---3------3---3---3-|
---4---------1-----------|--4-----------------------|--1----------1-----------|
-------------------------|--------------4-----------|-------------------------|


--------1-----------4-----|--------1-----------2-----|
------2---2-------1---1---|------2---2-------2---2---|
----1-------1---1-------1-|--------------------------|
--------------------------|----4-------4---4-------4-|
--4-----------3-----------|--2-----------1-----------|
--------------------------|--------------------------|


--------0-----------0-----|------------------------|------0-4-0---------7-----|
------2---2-------0---0---|-----------------1---1--|----0-------0---0-4---4---|
----2-------2---1-------1-|------3---3------1---1--|------------------------4-|
--------------------------|------4---4----1---1----|--2-----------1-----------|
--0-----------------------|----4---4---------------|--------------------------|
--------------4-----------|--2----------4----------|--------------------------|


---------2---------1-----|--------1-----------------|-------------------------|
-----------------2---2---|------2---2-------1-4-1---|------3---3------3---3---|
-------3---3---3-------3-|----1-------1---1-------1-|------3---3------3---3---|
-----4-------------------|--------------------------|----3---3------3---3---3-|
---4---------1-----------|--4-----------------------|--1----------1-----------|
-------------------------|--------------4-----------|-------------------------|


--------1-----------4-----|--------1-----------2-----|
------2---2-------1---1---|------2---2-------2---2---|
----1-------1---1-------1-|--------------------------|
--------------------------|----4-------4---4-------4-|
--4-----------3-----------|--2-----------1-----------|
--------------------------|--------------------------|


--------0-----------0-----|------------------------|------0-4-0---------7-----|
------2---2-------0---0---|-----------------1---1--|----0-------0---0-4---4---|
----2-------2---1-------1-|------3---3------1---1--|------------------------4-|
--------------------------|------4---4----1---1----|--2-----------1-----------|
--0-----------------------|----4---4---------------|--------------------------|
--------------4-----------|--2----------4----------|--------------------------|


---------2---------1-----|--------1-----------------|-------------------------|
-----------------2---2---|------2---2-------1-4-1---|------3---3------3---3---|
-------3---3---3-------3-|----1-------1---1-------1-|------3---3------3---3---|
-----4-------------------|--------------------------|----3---3------3---3---3-|
---4---------1-----------|--4-----------------------|--1----------1-----------|
-------------------------|--------------4-----------|-------------------------|


--------1-----------4-----|--------1-----------2-----|
------2---2-------1---1---|------2---2-------2---2---|
----1-------1---1-------1-|--------------------------|
--------------------------|----4-------4---4-------4-|
--4-----------3-----------|--2-----------1-----------|
--------------------------|--------------------------|


--------0-----------0-----|------------------------|------0-4-0---------7-----|
------2---2-------0---0---|-----------------1---1--|----0-------0---0-4---4---|
----2-------2---1-------1-|------3---3------1---1--|------------------------4-|
--------------------------|------4---4----1---1----|--2-----------1-----------|
--0-----------------------|----4---4---------------|--------------------------|
--------------4-----------|--2----------4----------|--------------------------|


---------2---------1-----|--------1-----------------|-------------------------||
-----------------2---2---|------2---2-------1-4-1---|------3---3------3---3---||
-------3---3---3-------3-|----1-------1---1-------1-|------3---3------3---3---||
-----4-------------------|--------------------------|----3---3------3---3---3-||
---4---------1-----------|--4-----------------------|--1----------1-----------||
-------------------------|--------------4-----------|-------------------------||
Добавлено: 14.11.2015
Другие материалы по этой песне:

Страница создана 24.04.2012
http://primanota.ru/angra/lasting-child-chords.htm
Привет, Гость.
Предлагаем пройти революционный курс по гитаре.
Подарок от PrimaNota.Ru, забирай!