PrimaNota.ru - самый крупный в мире бесплатный архив песенных текстов, аккордов, табулатур и нот


Angra - Abandoned Fate - таба, видео

Регистрация Запомнить меня
Войти через:  Facebook Google Twitter Vk Yandex Mail.ru

Angra - Abandoned Fate - таба, видео

Печатать
Просмотров: 30
Авторы музыки: Kiko Loureiro
Авторы текста: Kiko Loureiro
Angra - Abandoned Fate

(Intro)


E|--5--------3---------3-------------------|-------------------------------0-------0---------|
B|-----0---------0--------5------5--------5|-6----------3------3-------1-----1---2----1---1--|
G|--------0---------0----------0---0---0---|----0----------0-------2------2----2--------2----|
D|--3--------3---------------5-------5-----|-------7---------0-------2-----------------------|
A|------------------------3----------------|-5----------2--------0---------------------------|
E|-----------------------------------------|-------------------------------------------------|


E|--5--------3---------3-------------------|------------------------------------------|
B|-----0---------0--------5------5--------5|-6----------6------------------6----------|
G|--------0---------0----------0---0---0---|-------0---------0---------0--------0-----|
D|--3--------3---------------5-------5-----|----7----7----7-----7----7---7----7----7--|
A|------------------------3----------------|-5--------------------5-------------------|
E|-----------------------------------------|------------------------------------------|


E|--5--------3---------3-------------------|-------------------------------0-------0---------|
B|-----0---------0--------5------5--------5|-6----------3------3-------1-----1---2----1---1--|
G|--------0---------0----------0---0---0---|----0----------0-------2------2----2--------2----|
D|--3--------3---------------5-------5-----|-------7---------0-------2-----------------------|
A|------------------------3----------------|-5----------2--------0---------------------------|
E|-----------------------------------------|-------------------------------------------------|


E|--5--------3---------3-------------------|------------------------------------------|
B|-----0---------0--------5------5--------5|-6----------6------------------6----------|
G|--------0---------0----------0---0---0---|-------0---------0---------0--------0-----|
D|--3--------3---------------5-------5-----|----7----7----7-----7----7---7----7----7--|
A|------------------------3----------------|-5--------------------5-------------------|
E|-----------------------------------------|------------------------------------------|


(Part 2)

E|--5--------7---------7--8-----------------------------------------------------|
B|-----0---------0---------------8-8------8---9----9--8---8----------11---------|
G|--------0---------0----------0--------0--------8-------7--------10-------10---|
D|--3--------5--------------------------------------------------8--------8----8-|
A|------------------------7-----------7-------8-------7-------------------------|
E|-----------------------------------------------------------10-----------------|


E|------------------------------------------------5--------7-----------------8---------|
B|--8----8---6--------5-----5--3------------5-----5-------------10-------8--------8----|
G|--7--------7--7-----4--------4--4---------5-----5---------------------0---0----0---0-|
D|-----5---------6--------2---------3-----5--------------9------------8----------------|
A|--------------------------------------0---------3---7-------7----7-------------------|
E|--7-------------7---4--------------4---------3---------------------------------------|


E|----------8----------|--12/10---10/8----8--------8-----------8-------8------8--|
B|-----8---------8-----|--12/10---10/8----8------8-----8-----8-------8------7----|
G|---0---0----0----0---|-------10--0----9----10------9-----7------6-------5------|
D|---------------------|---------------------------------------------------------|
A|-8-------------------|---------------------------------------------------------|
E|---------------------|---------------------------------------------------------|


E|--------0-------------0--|------------------------------------------------------|
B|-----5----5---------5----|---------3-----------------3----------------1---------|
G|---5--------5------4-----|---0---0---0---0-------1-------1---------4-------4----|
D|-4------------4--3-------|-----4-------4-------2---2---2---2-----2---2---2---4--|
A|-------------------------|-3-----------------3-----------------3----------------|
E|-------------------------|------------------------------------------------------|


E|----------------------------------------------------------------------|
B|---------1-----------------3----------------3---------------0---------|
G|-----4-------4---------0------0---------0-------0----------------5----|
D|---2---2---2---2-----3---3--3---3-----3--3----3---3-----5-----7----7--|
A|-3-----------------1---------------1------------------7---7-----------|
E|-----------------------------------------------------0----------------|


E|---------------------|----------------------|------------|
B|---------0----------|-------------1--------|----------0-|
G|------2-------2-----|--------1---------1---|--------1---|
D|----1---1---1----1--|------0---0-----0---0-|-----2------|
A|--------------------|----------------------|---2--------|
E|--2-----------------|1---------------------|0-----------|


(Part 3)3x


E|--------------------------0--|------|----------------|
B|------3---3---5---3---1---0--|--3-3-|----3------3----|
G|*-----4---4---5---4---2---2--|--2-2-|--2--2---2---2--|
D|*-------------------------3--|--3-3-|-------3--------|
A|---0---0----0---0---0---0----|------|----------------|
E|--------------------------1--|------|-1--------------|


E|-----------------------------|------|----------------|
B|------3---3---5---3---1---3--|--5---|----5------5----|
G|*-----4---4---5---4---2---2--|--4---|--4--5---4---4--|
D|*-------------------------0--|--2---|-------2--------|
A|---0---0----0---0---0---0----|------|----------------|
E|--------------------------2--|--4---|-4--------------|


E|----------------------------------------|
B|--6-------6------6--8---------8------8--|
G|------2------2-----------7-------7------|
D|----3--2------2--------5---5-------5----|
A|----------------------------------------|
E|--5-----------------7-------------------|


(Chorus)2x


E|-0-0-0-x-0---0-0-0-0-|-1-1-1-x-1-1-----1-1-1-1---|
B|-1-1-1-x-1---1-1-1-1-|-3-3-3-x-3-3-3---3-3-3-3---|
G|-2-2-2-x-2-2-2-2-2-2-|-2-2-2-x-2-2-2-2-2-2-2-2---|
D|-3-3-3-x-3-3-3-3-3-3-|-0-0-0-x-0-0-0-0-0-0-0-0---|
A|-3-3-3-x-3-3-3-3-3-3-|---------------------------|
E|-1-1-1-x-1-1-1-1-1-1-|---------------------------|


E|-0-0-0-x-0---0-0-0-0-|-3-3-3-x-3-3-3-3-3-3-3-3---|
B|-1-1-1-x-1---1-1-1-1-|-3-3-3-x-3-3-3-3-3-3-3-3---|
G|-0-0-0-x-0-0-0-0-0-0-|-0-0-0-x-0-0-0-0-0-0-0-0---|
D|-2-2-2-x-2-2-2-3-2-2-|-0-0-0-x-0-0-0-0-0-0-0-0---|
A|-3-3-3-x-3-3-3-3-3-3-|-2-2-2-x-2-2-2-2-2-2-2-3---|
E|-------x-------------|-3-3-3-x-3-3-3-3-3-3-3-3---|


(Final chorus)

E|-3----|
B|-3----|
G|-0----|
D|-0----|
A|-2----|
E|-3----|

(End music)


E|--5--------7---------7--8--------------|
B|-----0---------0---------------8-8-----|
G|--------0---------0----------0---------|
D|--3--------5---------------------------|
A|------------------------7--------------|
E|---------------------------------------|


E|----------------------------0-------|
B|----------3-------------------------|
G|-----2--------2---------2-------2---|
D|--3----3----3---3-----3---3---3---2-|2X
A|-1-----------------1----------------|
E|------------------------------------|


E|----------------------------0-------|----|--0-|
B|----------3-------------------------|----|--3-|
G|-----2--------2---------2-------2---|----|--2-|
D|--3----3----3---3-----3---3---3---2-|----|--3-|
A|-1-----------------1----------------|1---|--1-|
E|------------------------------------|----|----|


(HAm.----------------------------)


E|-(12)------------------------------(12)---------------|
B|-----(15)----------------------(15)----(15)-----------|
G|----------(14)-------------(14)-----------(14)--------|
D|---------------(15)-----(15)-----------------(15)-----|
A|--------------------(13)-------------------------(13)-|
E|------------------------------------------------------|
Добавлено: 14.11.2015
Другие материалы по этой песне:

Страница создана 22.05.2012
http://primanota.ru/angra/abandoned-fate-chords.htm
Привет, Гость.
Предлагаем пройти революционный курс по гитаре.
Подарок от PrimaNota.Ru, забирай!