PrimaNota.ru - самый крупный в мире бесплатный архив песенных текстов, аккордов, табулатур и нот


Anglagard - Jordrok - таба, видео

Регистрация Запомнить меня
Войти через:  Facebook Google Twitter Vk Yandex Mail.ru

Anglagard - Jordrok - таба, видео

Печатать
Просмотров: 91
Авторы музыки: Änglagård

-----------------------------------------------------------------------------
                           JORDRÖK - Änglagård
-----------------------------------------------------------------------------

Band: Änglagård
Song: Jordrök
Album: Hybris (1992)

Tabbed by: crimson-dync
Tuning: Standard


[Note: The "." means silence.]


--piano--
e |---6-5-----------|---6-5-----------|---6-5-----------|-------------9-8-|
B |---------7-----8-|---------7-----8-|-----------------|-----------------|
G 4-------------0---|-------------0---|-----------------|-----------6-----|
D 4-8-----7---------|-8-----7---------|-8---------------|-----------------|
A |-----------9-----|-----------9-----|-----------------|-----------------|
E |-----------------|-----------------|-----------------|-----------------|
  |      (x14)      |

e |---5---6---------9-8---5-|---6-----------9-8---5---|-6-----------------------|
B |-------------8-----------|---------8---------------|-------8-7---------------|
G 6-5---------0---6-----5---|-------0-----6-----5-----|-----0---------7---8---5-|
D 4-----7---8---------------|-7---8-----------------7-|---8---------0-----------|
A |-------------------------|-----------9-------------|-----------9-----6---3---|
E |-------------------------|-------------------------|-------------------------|

e |-------------------------|---------------0---1---0-|-------------------------|
B |-------------------------|---3-2-----3-------------|-------------------------|
G 6---3-2---0---------0---2-|-------------------------|---3-2---0---------0---2-|
D 4-------------4-----------|-0-------0---2---3---2---|-------------4-----------|
A |-1-----0-------------0---|-------4-----------------|-1-----0-------------0---|
E |-----------3---2-3-------|-------------------------|-----------3---2-3-------|
  |          (x2)           |          (x2)           |          (x2)           |

e |-----------------------------|
B |-----------------------------|
G 7-----------------------------|
D 4---6-5---4-----6-5---4-----5-|
A |-----------------------------|
E |-4-----3---2-3-----3---2-3---|
  |           (x4)              |

1.06
--guitar--

-/-/-/-/-/-/-/-/-/-SEGMENT-/-/-/-/-/-/-/-/-/-
e |-----------------------------|-----------------------------|
B |-----------------------------|---------------------987-----|
G 7---------7-8-9-8/--.-7-.-8\--|---------7-8-9-8/--.-----765-|
D 4-----6-.---------------------|-----6-.---------------------|
A |-----6-.-------------5-.-6\--|-----6-.---------------------|
E |-----------------------------|-----------------------------|

e |----------------------10--11-|-----------------------------|
B |-----------------------------|-----------------------------|
G 7---------7-8-9-8/--.-7---8---|---------7-8-9-8/--.---7---8-|
D 4-----6-.---------------------|-----6-.---------------------|
A |-----6-.---------------------|-----6-.-------------5---6---|
E |-----------------------------|-----------------------------|

--keys--
e |---------------------|
B |---------------------|
G 5---------------------|
D 4-----3---5---.-3---5-|
A |-----4---6---.-4---6-|
E |---------------------|
  |         (x2)        |

1.22
--guitar--
e |-----------------------------|-----------------------------|
B |-----------------------------|-----------------------------|
G 7---------7-8-9-8/--.-7-.-8\--|---------7-8-9-8/--.-7-.-8\--|
D 4-----6-.---------------------|-----6-.---------------------|
A |-----6-.-------------5-.-6\--|-----6-.-------------5-.-6\--|
E |-----------------------------|-----------------------------|

e |---------------------|---------------------|
B |---------------------|---------------------|
G 5---------8-----------|---------------------|
D 4-----------8---------|---------------------|
A |-------------6-8-----|---------------------|
E |-------------------5-|---3-.-------1-4-3-4-|
  |                    (x2)                   |

1.35
e |----------------|----------------|-----------------------|----------------|
B |----------------|----------------|--------------------9.-|----------------|
G 4-7------7/9-----|-12.9-----------|------------------10---|-12-9----8------|
D 4---8------------|------9---------|-11b12-11-9-----10-----|------10--------|
A |-----10---------|--------11------|------------11---------|----------------|
E |----------------|----------------|-----------------------|----------------|

e |----------------|----------------|-----------------------|-----------------------|
B |----------------|----------------|--------------------9.-|-----------------------|
G 4-7------7/9-----|-12.9-----------|------------------10---|-12-9hp12----8hp11-----|
D 4---8------------|------9---------|-11b12-11-9-----10-----|-----...--10--...--...-|
A |-----10---------|--------11------|------------11---------|-----------------------|
E |----------------|----------------|-----------------------|-----------------------|

e |----------------|----------------|
B |----------------|----------------|
G 4-7------7/9-----|-12.9-----------|
D 4---8------------|------9---------|
A |-----10---------|--------11------|
E |----------------|----------------|
-/-/-/-/-/-/-/-/-/-SEGMENT-/-/-/-/-/-/-/-/-/-

1.52
e |----------------|----------------|----------------|----------------|
B |----------------|----------------|-------6--------|-------6--------|
G 4-------7--------|-------7--------|-7---7----------|-7---7----------|
D 4-8-7-5----------|-8-7-5----------|---9------------|---9------------|
A |----------------|----------------|----------------|----------------|
E |----------------|----------------|----------------|----------------|
  |                               (x2)                                |

2.05
SEGMENT (repeat)


2.49
e |-----------------|-----------------|-----------------|-----------------|
B |-----------------|-----------------|-----------------|-----------------|
G 4-7---.-----------|---------8---.---|-10--.-----------|-----------------|
D 4---------9---.---|-8---.-----------|---------11--.---|-10--------------|
A |-----------------|-----------------|-----------------|-----------------|
E |-----------------|-----------------|-----------------|-----------------|

e |-----------------|-----------------|-----------------|-----------------|
B |-----------------|-----------------|-----------------|-----------------|
G 4---------8-------|-7---.-----------|-----------------|-------5--7------|
D 4(10)-.------10---|---------7---.---|-8---------7--5--|-7--8------------|
A |-----------------|-----------------|-----------------|-----------------|
E |-----------------|-----------------|-----------------|-----------------|

e |-----------------|-----------------|
B |-----------------|-----------------|
G 4-7------7/9------|-12-9------------|
D 4---8-------------|------9----------|
A |-----10----------|--------11-------|
E |-----------------|-----------------|

3.06
e |-----------------|-----------------|-----------------|-----------------|
B |-----------------|-----------------|-----------------|-----------------|
G 4-7---.-----------|---------8---.---|-10--.-----------|-----------------|
D 4---------9---.---|-8---.-----------|---------11--.---|-10--------------|
A |-----------------|-----------------|-----------------|-----------------|
E |-----------------|-----------------|-----------------|-----------------|

e |-----------------|-----------------|-----------------|-----------------|
B |-----------------|-----------------|-----------------|-----------------|
G 4---------8-------|-7---.-----------|-7---------------|(7)--------------|
D 4(10)-.------10---|---------7---.---|-----------------|-----------------|
A |-----------------|-----------------|-----------------|-----------------|
E |-----------------|-----------------|-----------------|-----------------|
                                                        |      (x3)       |

3.23
    Gm                                  Am
e |-------3-------3-|-------3-------3-|-------5-------5-|-------5-------5-|
B |-----3-------3---|-----3-------3---|-----5-------5---|-----5-------5---|
G 4---3-------3-----|---3-------3-----|---5-------5-----|---5-------5-----|
D 4-5-------5-------|-5-------5-------|-7-------7-------|-7-------7-------|
A |-----------------|-----------------|-----------------|-----------------|
E |-----------------|-----------------|-----------------|-----------------|
  |                                 (x12)                                 |

--flute--
e |-----------------|-----------------|-----------------|-----------------|
B |-----------------|-----------------|-----------------|-------------10--|
G 4-----------------|-----------------|-----------------|-----------------|
D 4-----------------|-----------------|-----------------|-----------------|
A |-----------------|-----------------|-----------------|-----------------|
E |-----------------|-----------------|-----------------|-----------------|

3.51
e |-----------------|-----------------|-----------------|-----------------|
B |-11--------------|-10------8-------|-----------------|-------------10--|
G 4-----------------|-----------------|-9---------------|(9)--------------|
D 4-----------------|-----------------|-----------------|-----------------|
A |-----------------|-----------------|-----------------|-----------------|
E |-----------------|-----------------|-----------------|-----------------|

e |-----------------|-10--------------|-8---------------|(8)--------------|
B |-11--------------|-----------------|-----------------|-------------10--|
G 4-----------------|-----------------|-----------------|-----------------|
D 4-----------------|-----------------|-----------------|-----------------|
A |-----------------|-----------------|-----------------|-----------------|
E |-----------------|-----------------|-----------------|-----------------|

e |-----------------|-----------------|-----------------|-----------------|
B |-11--------------|-10------8-------|-----------------|-----------------|
G 4-----------------|-----------------|-9---------------|(9)--------------|
D 4-----------------|-----------------|-----------------|-----------------|
A |-----------------|-----------------|-----------------|-----------------|
E |-----------------|-----------------|-----------------|-----------------|

e |-----------------|-----------------|-----------------|-----------------|
B |-----------------|-11--------------|-10--------------|(10)---------10--|
G 4-7---------------|-----------------|-----------------|-----------------|
D 4-----------------|-----------------|-----------------|-----------------|
A |-----------------|-----------------|-----------------|-----------------|
E |-----------------|-----------------|-----------------|-----------------|

e |-6---6---6---6---|-6---6---6---6---|-8---------------|-----------------|
B |---8---8---8---8-|---8---8---8---8-|-----------------|-10--------------|
G 4-----------------|-----------------|-----------------|-----------------|
D 4-----------------|-----------------|-----------------|-----------------|
A |-----------------|-----------------|-----------------|-----------------|
E |-----------------|-----------------|-----------------|-----------------|

e |-----------------|-----------------|-----------------|-12------8-------|
B |-8---------------|-11------10--8---|-10--------------|-------------10--|
G 4---------7-------|-----------------|-----------------|-----------------|
D 4-----------------|-----------------|-----------------|-----------------|
A |-----------------|-----------------|-----------------|-----------------|
E |-----------------|-----------------|-----------------|-----------------|

e |-10--10----------|-10--10----------|-12--------------|-8---------------|
B |---11--1110------|---11--11--------|-----------------|---------10------|
G 4-------------12--|---------12--.---|-----------------|-----------------|
D 4-----------------|-----------------|-----------------|-----------------|
A |-----------------|-----------------|-----------------|-----------------|
E |-----------------|-----------------|-----------------|-----------------|

e |-----------------|-----------------|-----------------|-----------------|
B |-11--------------|-10-------8------|-----------------|-----------------|
G 4-----------------|-----------------|-9---------------|(9)----------.---|
D 4-----------------|-----------------|-----------------|-----------------|
A |-----------------|-----------------|-----------------|-----------------|
E |-----------------|-----------------|-----------------|-----------------|

4.47
--organ--
e |-----------------|-----------------|-----------------|-----------------|
B |-----------------|-------------0---|-----------------|-----------------|
G 4-----------------|-0-------2-------|-4---------------|-----------------|
D 4---------4-------|-----------------|-4---------------|-4-------2---1---|
A |---------2-------|-----------------|-0-------2-------|-0---------------|
E |-----------------|-0-------2---3---|-----------------|---------3---2---|

e |-----------------|-----------------|-0---------------|-----------------|
B |-----------------|-1-------0-------|-------1-0-------|-1-------0-------|
G 4-0---------------|-----------------|-----------------|-----------------|
D 4-2-----------4---|-----------------|-----------------|-----------------|
A |-----------------|-0-----0---------|---------2-------|-0---------------|
E |-0---------------|-----3---2-------|-0---2-3---------|---------3-------|

e |-----------------|-----------------|-----------------|
B |-0---------------|-----------------|-----------------|
G 4---------2-------|-0---------------|-0---------------|
D 4-----------------|-2-------4-------|-----------------|
A |---------0-------|-2-------6-------|-2---------------|
E |-2---3-----------|---------5-------|-0---------------|

5.06
--keys--
e |-------------------------|-------------------------|
B |-------------------------|-------------------------|
G 3-4-----------2-----2---4-|-5-----------5---4-2-----|
D 4-----2-4-5-------5-------|-----2-4-5-------------5-|
A |-------------------------|-------------------------|
E |-------------------------|-------------------------|
  |                       (x2)                        |

e |-------------------------|-------------------------|
B |-------------------------|-------------------------|
G 3-4-----------2-----------|-------------2-----------|
D 4-----2-4-5---------4---2-|-5-------2---------2---4-|
A |-----------------5-------|-----3-5---------5-------|
E |-------------------------|-------------------------|
  |                       (x2)                        |

e |-------------------------|-2-------2---3---5---7---|
B |-------------------5-----|-------4-----------------|
G 3-5-----2-5---4-----------|-----4-----4-------------|
D 4-----2-----2-----2-----2-|-------------------------|
A |-------------------------|-------------------------|
E |-------------------------|-------------------------|
  |                       (x2)                        |

5.23 (keys go on)
--guitar--
G |-------------------------|-------------------------|
D 3-------------------------|-------------------------|
A 4-7-x-x-7-x-x-7-x-x-7-x-x-|-7-x-x-7-x-x-7-x-x-7-x-7-|
E |-------------------------|-------------------------|

G |-------------------------|-------------------------|
D 3-------------------------|-------------------------|
A 4-7-x-x-7-x-x-7-x-x-7-x-7-|-7-x-7-7-7-7-7-x-x-7-x-7-|
E |-------------------------|-------------------------|

G |-------------------------|-------------------------|
D 3-------------------------|-------------------------|
A 4-7-x-7-7-7-7-7-x-x-7-x-7-|-7-x-x-7-x-x-7-x-x-7-x-7-|
E |-------------------------|-------------------------|

G |-------------------------|-------------------------|
D 3-------------------------|-------------------------|
A 4-7-x-7-7-7-x-7-x-7-7-x-7-|-7-x-7-7-7-7-7-x-x-7-x-7-|
E |-------------------------|-------------------------|

G |-9-----------9-----------|-------------------------|
D 3-------------------------|-------------------------|
A 4-7-x-x-7-x-x-7-x-x-7-x-x-|-7/9-x-9-x-x-9-x-9-x-9-x-|
E |-------------------------|-------------------------|

G |-9-----------9-----------|-------------------------|
D 3-------------------------|-------------------------|
A 4-7-x-x-7-x-x-7-x-x-7-x-x-|-7/9-x-9-x-x-9-----------|
E |-------------------------|-------------------------|

5.41 (x2)
e |-15b---15b---15b-15--13--|-12----------12----------|
B |-------------------------|-------13------------13--|
G 3-------------------------|----14----14-----14------|
D 4-------------------------|-------------------------|
A |-------------------------|-------------------------|
E |-------------------------|-------------------------|
  |                       (x2)                        |

e |-------------------------|-------------------------|
B |-------------8-----------|-----7-8-----10----------|
G 3-------------9-----------|-9-----------------------|
D 4-------------9-----------|-----------------7-9-10--|
A |-------------7-----------|-------------------------|
E |-------------------------|-------------------------|
  |                       (x2)                        |

6.04
--keys--
e |-5-------5---6-------6---|-8---5---8---6-------6---|
B |-----5-----------8-------|-----------------8-------|
G 3---7---7---7---7---7---7-|---7---7---7---7---7---7-|
D 4-------------------------|-------------------------|
A |-------------------------|-------------------------|
E |-------------------------|-------------------------|
--guitar--  
e |-------------------------|-------------------------|
B |-------------------------|-------------------------|
G 3-------------------------|-------------------------|
D 4-7---7-7-7---7---7-7-7---|-7---7-7-7---7---7-7-7---|
A |-5---5-5-5---5---5-5-5---|-5---5-5-5---5---5-5-5---|
E |-------------------------|-------------------------|

--keys--
e |-5-------5---5-------5---|-------------------------|
B |-----6-----------5-------|-8-------8---6-------6---|
G 3---7---7---7---5---5---5-|-----7-----------7-------|
D 4-------------------------|---8---8---8---7---7---7-|
A |-------------------------|-------------------------|
E |-------------------------|-------------------------|
--guitar--  
e |-------------------------|-------------------------|
B |-------------------------|-------------------------|
G 3-------------------------|-------------------------|
D 4-7---7-7-7---7---7-7-7---|-7---7-7-7---7---7-7-7---|
A |-5---5-5-5---5---5-5-5---|-5---5-5-5---5---5-5-5---|
E |-------------------------|-------------------------|

6.10
--guitar--
e |-------------------------|-------------------------|
B |-------------------------|-------------------------|
G 3-----------------7-------|---------8---9-----------|
D 4-10----------10------10--|-9-----------------------|
A |-------------------------|-------------------------|
E |-------------------------|-------------------------|
  |                       (x2)                        |

6.15
--flute--
e |-----7---7-8-7-------------------|---------108-7-------------------|
B |---------------108-7-8-10--------|---7-8-10------108-7-------------|
G 4-9-----------------------9-------|-9-------------------9-8-9-------|
D 4---------------------------------|---------------------------------|
A |---------------------------------|---------------------------------|
E |---------------------------------|---------------------------------|

e |-----7---7-8-7-------------------|-7-8-7---------------------------|
B |---------------108-7-8-10--------|-------108---7---8---7-----------|
G 4-9-----------------------9-------|-------------------------9---8---|
D 4---------------------------------|---------------------------------|
A |---------------------------------|---------------------------------|
E |---------------------------------|---------------------------------|

e |-----7---7-8-7-------------------|---------108-7-------------------|
B |---------------108-7-8-10--------|---7-8-10------108-7-------------|
G 4-9-----------------------9-------|-9-------------------9-8-9-------|
D 4---------------------------------|---------------------------------|
A |---------------------------------|---------------------------------|
E |---------------------------------|---------------------------------|
                                     --guitar--
e |-----7---7-8-7-------------------|-------------------------|
B |---------------108-7-8-10--------|-------------------------|
G 4-9-----------------------9-------3-4---2---4---.-----------|
D 4---------------------------------4-5---4---5---.-----------|
A |---------------------------------|-------------------------|
E |---------------------------------|-------------------------|

6.39 (x2)
--guitar--
e |-15b---15b---15b-15--13--|-12----------12----------|
B |-------------------------|-------13------------13--|
G 3-------------------------|----14----14-----14------|
D 4-------------------------|-------------------------|
A |-------------------------|-------------------------|
E |-------------------------|-------------------------|
  |                       (x2)                        |

e |-------------------------|-------------------------|
B |-------------8-----------|-----7-8-----10----------|
G 3-------------9-----------|-9-----------------------|
D 4-------------9-----------|-----------------7-9-10--|
A |-------------7-----------|-------------------------|
E |-------------------------|-------------------------|
  |                       (x2)                        |

7.01
--keys--
e |-5-------5---6-------6---|-8---5---8---6-------6---|
B |-----5-----------8-------|-----------------8-------|
G 3---7---7---7---7---7---7-|---7---7---7---7---7---7-|
D 4-------------------------|-------------------------|
A |-------------------------|-------------------------|
E |-------------------------|-------------------------|
--guitar--  
e |-------------------------|-------------------------|
B |-------------------------|-------------------------|
G 3-------------------------|-------------------------|
D 4-7---7-7-7---7---7-7-7---|-7---7-7-7---7---7-7-7---|
A |-5---5-5-5---5---5-5-5---|-5---5-5-5---5---5-5-5---|
E |-------------------------|-------------------------|

--keys--
e |-5-------5---5-------5---|-------------------------|
B |-----6-----------5-------|-8-------8---6-------6---|
G 3---7---7---7---5---5---5-|-----7-----------7-------|
D 4-------------------------|---8---8---8---7---7---7-|
A |-------------------------|-------------------------|
E |-------------------------|-------------------------|
--guitar--  
e |-------------------------|-------------------------|
B |-------------------------|-------------------------|
G 3-------------------------|-------------------------|
D 4-7---7-7-7---7---7-7-7---|-7---7-7-7---7---7-7-7---|
A |-5---5-5-5---5---5-5-5---|-5---5-5-5---5---5-5-5---|
E |-------------------------|-------------------------|

--guitar-- (keys go on)
e |-------------------------|-------------------------|
B |-------------------------|-------------------------|
G 3-------------------------|-------------------------|
D 4-7---.---7---.---7---.---|-7---.---7---.---7---.---|
A |-5---.---5---.---5---.---|-5---.---5---.---5---.---|
E |-------------------------|-------------------------|

e |-------------------------|-------------------------|
B |-------------------------|-------------------------|
G 3-------------------------|-------------------------|
D 4-7-----------7-----------|-7-----------7-----------|
A |-5-----------5-----------|-5-----------5-----------|
E |-------------------------|-------------------------|

e |-------------------------|-------------------------|
B |-------------------------|-------------------------|
G 3-------------------------|-------------------------|
D 4-7---.---7---.---7---.---|-7---.---7---.---7---.---|
A |-5---.---5---.---5---.---|-5---.---5---.---5---.---|
E |-------------------------|-------------------------|

e |-------------------------|-------------------------|
B |-------------------------|-------------------------|
G 3-------------------------|-------------------------|
D 4-7-----------7-----------|-7-----------7-----------|
A |-5-----------5-----------|-5-----------5-----------|
E |-------------------------|-------------------------|

e |-------------------------|-------------------------|
B |-------------------------|-------------------------|
G 3-------------------------|-------------------------|
D 4-7---7-7-7---7---7-7-7---|-7---7-7-7---7---7-7-7---|
A |-5---5-5-5---5---5-5-5---|-5---5-5-5---5---5-5-5---|
E |-------------------------|-------------------------|
  |                       (x2)                        |

7.24
--guitar--
e |-------------|-------------|-------------|-------------|
B |-------------|-------------|-------------|-------------|
G 3-------------|-----8-9-----|-------------|-----8-9-----|
D 4-10----------|-9-----------|-10----------|-9-----------|
A |-------------|-------------|-------------|-------------|
E |-------------|-------------|-------------|-------------|
--flute--
e |-------------|-----7-------|-------------|-----7-------|
B |-------10----|-7-----8-----|-------10----|-7-----8-----|
G 3-9-----------|-------------|-9-----------|-------------|
D 4-------------|-------------|-------------|-------------|
A |-------------|-------------|-------------|-------------|
E |-------------|-------------|-------------|-------------|

--guitar--
e |-------------|-------------|-------------|-------------|
B |-------------|-------------|-------------|-------------|
G 3(9)----.-----|-------------|-------------|-------------|
D 4-------------|-------------|-------------|-------------|
A |-------------|-------------|-------------|-------------|
E |-------------|-------------|-------------|-------------|
--flute--
e |-8-----8-7---|-7---------7-|-------------|-------------|
B |-----------10|-------8-10--|-7-----------|(7)----.-----|
G 3-------------|-------------|-------------|-------------|
D 4-------------|-------------|-------------|-------------|
A |-------------|-------------|-------------|-------------|
E |-------------|-------------|-------------|-------------|

--guitar--
e |-8-----8.7.--|-7---------7.|-------------|-------------|
B |-----------10|-------8.10.-|-7---b-r-----|(7)----.-----|
G 3-------------|-------------|-------------|-------------|
D 4-------------|-------------|-------------|-------------|
A |-------------|-------------|-------------|-------------|
E |-------------|-------------|-------------|-------------|
--flute--
e |-------------|-------------|-7-----------|(7)----.-----|
B |-10------8-7-|-8-------7-8-|-7-----------|(7)----.-----|
G 3-------------|-------9-----|-------------|-------------|
D 4-------------|-------------|-------------|-------------|
A |-------------|-------------|-------------|-------------|
E |-------------|-------------|-------------|-------------|

--guitar--
e |-------------|-------------|-7-----------|(7)----.-----|
B |-------108.7.|/8-------7.8.|-7-----------|(7)----.-----|
G 3-------------|-------9.----|-------------|-------------|
D 4-------------|-------------|-------------|-------------|
A |-------------|-------------|-------------|-------------|
E |-------------|-------------|-------------|-------------|
--flute--
e |-8-----8-7---|-7---------7-|-------------|-------------|
B |-----------10|-------8-10--|-7-----------|(7)----.-----|
G 3-------------|-------------|-------------|-------------|
D 4-------------|-------------|-------------|-------------|
A |-------------|-------------|-------------|-------------|
E |-------------|-------------|-------------|-------------|

--guitar--
e |-8-----8.7.--|-7---------7.|-------------|-------------|
B |-----------10|-------8.10.-|-7---b-r-----|(7)----\-----|
G 3-------------|-------------|-------------|-------------|
D 4-------------|-------------|-------------|-------------|
A |-------------|-------------|-------------|-------------|
E |-------------|-------------|-------------|-------------|
--flute--
e |-------------|-------------|-7-----------|(7)----------|
B |-10------8-7-|-8-------7-8-|-7-----------|(7)----------|
G 3-------------|-------9-----|-------------|-------------|
D 4-------------|-------------|-------------|-------------|
A |-------------|-------------|-------------|-------------|
E |-------------|-------------|-------------|-------------|

--guitar--
e |-------------|-------------|
B |-------------|-------------|
G 3-------------|-------------|
D 4-4-----------|(4)----------|
A |-2-----------|(2)----------|
E |-------------|-------------|

7.56
--guitar--
e |---------------------------------|-----------------7---------------|
B |-8---------------7-------8-------|-7-----------8-10----------------|
G 4---------------------------------|---------------------------------|
D 4---------------------------------|---------------------------------|
A |---------------------------------|---------------------------------|
E |---------------------------------|---------------------------------|

e |---------------------------------|---------------------------------|
B |-10--------------8-------7-------|-------------------------7-------|
G 4---------------------------------|-9-------------------------------|
D 4---------------------------------|---------------------------------|
A |---------------------------------|---------------------------------|
E |---------------------------------|---------------------------------|

e |---------------------------------|-----------------7---------------|
B |-10------8---10--7---------------|-----------7-8-10----------------|
G 4---------------------------------|-9-------------------------------|
D 4---------------------------------|---------------------------------|
A |---------------------------------|---------------------------------|
E |---------------------------------|---------------------------------|

e |---------------------------------|---------------------------------|
B |-10--------------8-----------108-|-7-------8-------10--------------|
G 4---------------------------------|---------------------------------|
D 4---------------------------------|---------------------------------|
A |---------------------------------|---------------------------------|
E |---------------------------------|---------------------------------|

e |-----------------11--------------|-12------------------------------|
B |-12------------------------------|---------------------------------|
G 4---------------------------------|---------------------------------|
D 4---------------------------------|---------------------------------|
A |---------------------------------|---------------------------------|
E |---------------------------------|---------------------------------|

8.12
--strings--
e |-----------------|-----------------|-----------------|-----------------|
B |-5-------4-------|-----------------|-----------------|-5---------------|
G 4-----------------|-4---------------|-----------------|-----------4-----|
D 4-----------------|---------5-------|-4---------------|-----------------|
A |-----------------|-----------------|---------6-------|-----------------|
E |-----------------|-----------------|-----------------|-----------------|

e |-----------------|-----------------|---------7-------|-5-------2-------|
B |-----------------|-----------------|-----------------|-----------------|
G 4-5---------------|-----------------|-----------------|-----------------|
D 4---------5-------|-----------------|-----------------|-----------------|
A |-----------------|-6-------7-------|-----------------|---------0-------|
E |-----------------|-----------------|-----------------|-2---------------|

e |-3---------------|-2---------------|-----------------|-----------------|
B |-----------------|---------4-------|-5---------------|-4---------------|
G 4-----------------|-----------------|-----------------|-----------------|
D 4-----------------|-----------------|-----------------|-----------------|
A |-2-------3---2---|-0---------------|-----------------|-----------------|
E |-----------------|---------2-------|-0-------5---3---|-2---------------|

e |-----------------|-----------------|-----------------|-----------------|
B |-0---------------|-5---------------|(5)--------------|(5)--------------|
G 4-----------------|-----------------|-----------------|-----------------|
D 4-----------------|-----------------|-----------------|-----------------|
A |-2---------------|-----------------|-----------------|-----------------|
E |-----------------|-0---------------|(0)--------------|(0)--------------|

8.47
--guitar--
e |-------------------------|-------------------------|
B |-6---9-8-9---6---9-8-9---|-6---9-8-9---.-----------|
G 3-------------------------|-------------------------|
D 4-------------------------|-------------------------|
A |-------------------------|-------------------------|
E |-------------------------|-------------------------|
  |                       (x2)                        |

e |-------------------------|-------------------------|
B |-----7-6-7-------7-6-7---|-----7-6-7---.-----------|
G 3-8-----------8-----------|-8-----------------------|
D 4-------------------------|-------------------------|
A |-------------------------|-------------------------|
E |-------------------------|-------------------------|
  |                       (x2)                        |

e |-------------------------|-------------------------|-------------|
B |-6---9-8-9---6---9-8-9---|-6---9-8-9---.-----------|-6---9-8-9---|
G 3-------------------------|-------------------------3-------------|
D 4-------------------------|-------------------------8-------------|
A |-------------------------|-------------------------|-------------|
E |-------------------------|-------------------------|-------------|

e |-----8-7-8---------------|-----6-5-6---------------|
B |-10--------------7-6-7---|-8---------------6-5-6---|
G 3-------------8-----------|-------------7-----------|
D 4-------------------------|-------------------------|
A |-------------------------|-------------------------|
E |-------------------------|-------------------------|

e |-----5-4-5---5---8-7-8---|-8---111011--------------|
B |-7-----------------------|-------------10--131213--|
G 3-------------------------|-------------------------|
D 4-------------------------|-------------------------|
A |-------------------------|-------------------------|
E |-------------------------|-------------------------|
  |                        (x2)                       |

e |-----------------141314--|-14--171617------141314--|
B |-13--161516--16----------|-------------16----------|
G 3-------------------------|-------------------------|
D 4-------------------------|-------------------------|
A |-------------------------|-------------------------|
E |-------------------------|-------------------------|
  |                        (x2)                       |

9.18
e |-------------|-------------|-------------|-------------|
B |-17b---17b---|-15b---------|-17b-r-17b---|-15b---------|
G 3-------------|-------14b---|-------------|-------14b---|
D 4-------------|-------------|-------------|-------------|
A |-------------|-------------|-------------|-------------|
E |-------------|-------------|-------------|-------------|

e |---------1717|-------------|-----17------|-------------|
B |-17b---17b---|-15b---------|-17b---17b---|-15b---------|
G 3-------------|-------14b---|-------------|-------14b---|
D 4-------------|-------------|-------------|-------------|
A |-------------|-------------|-------------|-------------|
E |-------------|-------------|-------------|-------------|

9.30
e |-----5-4-5---5---8-7-8---|-8---111011--------------|
B |-7-----------------------|-------------10--131213--|
G 3-------------------------|-------------------------|
D 4-------------------------|-------------------------|
A |-------------------------|-------------------------|
E |-------------------------|-------------------------|
  |                        (x2)                       |

e |-----------------141314--|-14--171617------141314--|
B |-13--161516--16----------|-------------16----------|
G 3-------------------------|-------------------------|
D 4-------------------------|-------------------------|
A |-------------------------|-------------------------|
E |-------------------------|-------------------------|
  |                        (x2)                       |

e |-5---8-7-8---------------|-----6-5-6---------------|
B |-----------------7-6-7---|-8---------------6-5-6---|
G 3-------------8-----------|-------------7-----------|
D 4-------------------------|-------------------------|
A |-------------------------|-------------------------|
E |-------------------------|-------------------------|

e |-----5-4-5-------4---5---|-----5-4-5-------4---5---|
B |-7-----------7-----------|-7-----------7-----------|
G 3-------------------------|-------------------------|
D 4-------------------------|-------------------------|
A |-------------------------|-------------------------|
E |-------------------------|-------------------------|

--keys--
e |-------------------------|-------------------------|
B |-------------------------|-------------------------|
G 3-------------------------|-----------------0---2---|
D 4-------------------------|-----------2h4-2---4---4-|
A |-------------3---2-0---2-|-------------------------|
E |-0---3-2-3---------------|-------------------------|

e |-------------------------|-------------------------|---------5---8-----------|
B |-------------------------|-------------------------|-----8-7---7-------------|
G 3-5---4-------------------|-5---4-----4-.-----------|-9-8---------------------|
D 4-------7---5-----5---4-5-|-------7-----------------|-------------------------|
A |-------------7-----------|-------------------------|-------------------------|
E |-------------------------|-------------------------|-------------------------|

9.54
--guitar--
e |-18------17--15------------------|---------14------15--------------|
B |-----------------18------16------|-15------------------------------|
G 4---------------------------------|---------------------------------|
D 4---------------------------------|---------------------------------|
A |---------------------------------|---------------------------------|
E |---------------------------------|---------------------------------|

e |-------------------------15------|-14-----1714------------1714-----|
B |---------15--16--18--------------|------------1517------------1715-|
G 4-17------------------------------|----------------17161416---------|
D 4---------------------------------|---------------------------------|
A |---------------------------------|---------------------------------|
E |---------------------------------|---------------------------------|

e |-17b18---17--15------------------|---------14------15--------------|
B |-----------------18------16------|-15------------------------------|
G 4---------------------------------|---------------------------------|
D 4---------------------------------|---------------------------------|
A |---------------------------------|---------------------------------|
E |---------------------------------|---------------------------------|

e |-15--17--18----------------------|-14--15--17----------------------|
B |-----------------15--16--18------|-----------------13--15--16------|
G 4---------------------------------|---------------------------------|
D 4---------------------------------|---------------------------------|
A |---------------------------------|---------------------------------|
E |---------------------------------|---------------------------------|

10.06
e |---------------------------------|---------------------------------|
B |-15------13--11------------------|---------10------11--------------|
G 4-----------------14------12------|-11------------------------------|
D 4---------------------------------|---------------------------------|
A |---------------------------------|---------------------------------|
E |---------------------------------|---------------------------------|

e |---------------------------------|---------------------------------|
B |---------------------10--11------|-10----------------------101113--|
G 4-12--------------------------12--|---------------------------------|
D 4---------------------------------|---------------------------------|
A |---------------------------------|---------------------------------|
E |---------------------------------|---------------------------------|

e |-10------------------------------|---------------------------------|
B |---------13--11--10--1110--------|---------10------11--------------|
G 4-------------------------12------|-11------------------------------|
D 4---------------------------------|---------------------------------|
A |---------------------------------|---------------------------------|
E |---------------------------------|---------------------------------|

e |---------------------------------|---------------------------------|
B |---------------------10--11------|-------------------------101113--|
G 4/12--------------------------12--|-12b14---------------------------|
D 4---------------------------------|---------------------------------|
A |---------------------------------|---------------------------------|
E |---------------------------------|---------------------------------|

10.18
e |-10------------------------------|---------------------------------|
B |---------13--11--10--1110--------|---------10------11------10--11--|
G 4-------------------------12------|-11------------------12----------|
D 4---------------------------------|---------------------------------|
A |---------------------------------|---------------------------------|
E |---------------------------------|---------------------------------|

e |---------------------------------|---------141414141515151517171717|
B |-13----------13--15--16--13--1515|-15151515------------------------|
G 4-----14--15----------------------|---------------------------------|
D 4---------------------------------|---------------------------------|
A |---------------------------------|---------------------------------|
E |---------------------------------|---------------------------------|

e |-18------17--18--15--18--17--18--|---------------------------------|
B |---------------------------------|-15--16--13--15------13----------|
G 4---------------------------------|-----------------15------14--15--|
D 4---------------------------------|---------------------------------|
A |---------------------------------|---------------------------------|
E |---------------------------------|---------------------------------|

e |---------------------------------|-----------------10------11------|
B |---------------------10--11------|-10------11//13------------------|
G 4-12-------------/12--------------|---------------------------------|
D 4---------------------------------|---------------------------------|
A |---------------------------------|---------------------------------|
E |---------------------------------|---------------------------------|

10.30
e |-10------------------------------|-10------b11-------------r10-----|
B |---------------------------------|---------------------------------|
G 4---------------------------------|---------------------------------|
D 4---------------------------------|---------------------------------|
A |---------------------------------|---------------------------------|
E |---------------------------------|---------------------------------|

e |-----------18--------171517181715|-17----------------------.-------|
B |-15---16-------------------------|-------------------------------x-|
G 4---------------------------------|-----------------------------x---|
D 4---------------------------------|---------------------------------|
A |---------------------------------|---------------------------------|
E |---------------------------------|---------------------------------|

10.36
--guitar--
e |-17b18r17--15--------------------|-------------------------11------|
B |-----------------15------.-------|-.-------13------.---------------|
G 4---------------------------------|---------------------------------|
D 4---------------------------------|---------------------------------|
A |---------------------------------|---------------------------------|
E |---------------------------------|---------------------------------|
--flute--
e |---------------------------------|---------------------------------|
B |---------------------------------|---------------------------------|
G 4-12------------------------------|-14----------------------.-------|
D 4---------------------------------|---------------------------------|
A |---------------------------------|---------------------------------|
E |---------------------------------|---------------------------------|

--guitar--
e |-10----------------------.-------|---------------------------------|
B |---------------------------------|---------------------------------|
G 4---------------------------------|---------------------------------|
D 4---------------------------------|---------------------------------|
A |---------------------------------|---------------------------------|
E |---------------------------------|---------------------------------|
--flute--
e |-------------------------15------|-141514151415141514------15--17--|
B |-15------------------------------|---------------------------------|
G 4---------------------------------|---------------------------------|
D 4---------------------------------|---------------------------------|
A |---------------------------------|---------------------------------|
E |---------------------------------|---------------------------------|

--guitar--
e |---------------------------------|-17------.-------15------.-------|
B |---------------------------------|---------------------------------|
G 4-14----------------------.-------|---------------------------------|
D 4---------------------------------|---------------------------------|
A |---------------------------------|---------------------------------|
E |---------------------------------|---------------------------------|
--flute--
e |-17----------171815--------------|---------------------------------|
B |-------------------------15--.---|-15----------161513------.-------|
G 4---------------------------------|---------------------------------|
D 4---------------------------------|---------------------------------|
A |---------------------------------|---------------------------------|
E |---------------------------------|---------------------------------|

--guitar--
e |---------------------------------|---------------------------------|
B |-----------------11--.---13--.---|-11----------.---10----------.---|
G 4-12--.---14--.-------------------|---------------------------------|
D 4---------------------------------|---------------------------------|
A |---------------------------------|---------------------------------|
E |---------------------------------|---------------------------------|
--flute--
e |---------------------------------|---------------------------------|
B |-15----------------------16------|-15--------------13--------------|
G 4---------------------------------|---------------------------------|
D 4---------------------------------|---------------------------------|
A |---------------------------------|---------------------------------|
E |---------------------------------|---------------------------------|

--guitar--
e |---------------------------------|---------------------------------|
B |-11--------------.-------11------|-10------------------------------|
G 4---------------------------------|---------------------------------|
D 4---------------------------------|---------------------------------|
A |---------------------------------|---------------------------------|
E |---------------------------------|---------------------------------|
--flute--
e |---------------------------------|---------------------------------|
B |-15--------------.---------------|---------------------------------|
G 4-------------------------15------|-14------------------------------|
D 4---------------------------------|---------------------------------|
A |---------------------------------|---------------------------------|
E |---------------------------------|---------------------------------|

--guitar--
e |-10------------------------------|---------------------------------|
B |-----------------.-------11--.---|-10--------------.---------------|
G 4---------------------------------|---------------------------------|
D 4---------------------------------|---------------------------------|
A |---------------------------------|---------------------------------|
E |---------------------------------|---------------------------------|
--flute--
e |---------------------------------|---------------------------------|
B |---------------------------------|-----------------------------10--|
G 4-12--------------------------.---|-111211121112111211------12------|
D 4---------------------------------|---------------------------------|
A |---------------------------------|---------------------------------|
E |---------------------------------|---------------------------------|

--guitar--
e |---------------------------------|---------------------------------|
B |-11------------------------------|(11)-----------------------------|
G 4---------------------------------|---------------------------------|
D 4---------------------------------|---------------------------------|
A |---------------------------------|---------------------------------|
E |---------------------------------|---------------------------------|
--flute--
e |---------------------------------|---------------------------------|
B |-11------------------------------|(11)-----------------------------|
G 4---------------------------------|---------------------------------|
D 4---------------------------------|---------------------------------|
A |---------------------------------|---------------------------------|
E |---------------------------------|---------------------------------|



Buenos Aires. April, 2013.

soldync@yahoo.com.ar
Добавлено: 27.08.2013
Вам также может быть интересно:
Другие материалы по этой песне:

Страница создана 27.08.2013
http://primanota.ru/anglagard/jordrok-chords.htm
Привет, Гость.
Предлагаем пройти революционный курс по гитаре.
Подарок от PrimaNota.Ru, забирай!